Log in

One click and you are in

Login with Facebook Login with Google

Why sign up and log in

Guitar Tabs Explorer
Mastodon bass tabs for Divinations

Bass tabs

-------------------------------------------------------------------------------
		   "Divinations" bass tab --- Mastodon
-------------------------------------------------------------------------------

Tabbed by: [travis]

*I saw that there wasn't a single bass tab for this song, so I gave it
 a shot. Hope it works out, sounds right.

Tuning: D G C F (low to high)


Key:

h = hammer on
p = pull off
/ = slide up
\ = slide up
~ = vibrato / ring
() = note not picked
h/ = picked once
p\ = picked once



Intro:

No bass during first couple of seconds


F|------------------------------------------------------|
C|------------------------------------------------------|
G|------------------------------------------------------|
D|-/7--7----------7-7---8~~~~---7--7-----7--7----8~~~~~-|


F|--------------------------------------------------------|
C|--------------------------------------------------------|
G|--------------------------------------------------------|
D|-3--3-------3--3----4~~~~--3--3-----3--3----4~~~~~~(4)\-|


F|---------------------------------------------------------|
C|--------------------------------------------------10-----|
G|-----------------------------------------------------10\-|
D|-7--7--------7--7----8~~~~~--7--7-----7--7----8/---------|

End of Intro.


Verse 1:

F|-----------------------------------------------------------------------------------------------|
C|-----------------------------------------------------------------------------------------------|
G|-----------------------------------------------------------------------------------------------|
D|3-3-3-3-3-3-3-3-3-3h4-4-4p3-3-3-3-3-3-3-3-3h4-4-4p3-3-3-3-3-3-3-3-3h4-4-4p3-3-3-3-3-3-3-3-3-3-3|


F|---------------------------------------------------------------------------------------------|
C|---------------------------------------------------------------------------------------------|
G|------------------------------------------------------------------------------------------10\|
D|0-0-0-0-0-0-0-0-0-0h1-1-1p0-0-0-0-0-0-0-0-0h1-1-1p0-0-0-0-0-0-0-0-0h1-1-1p0-0-0-0-0-0-0-0----|


F|-----------------------------------------------------------------------------------------------|
C|-----------------------------------------------------------------------------------------------|
G|-----------------------------------------------------------------------------------------------|
D|3-3-3-3-3-3-3-3-3-3h4-4-4p3-3-3-3-3-3-3-3-3h4-4-4p3-3-3-3-3-3-3-3-3h4-4-4p3-3-3-3-3-3-3-3-3-3-3|


F|---------------------------------------------------------------------------------------------|
C|---------------------------------------------------------------------------------------------|
G|------------------------------------------------------------------------------------------10\|
D|0-0-0-0-0-0-0-0-0-0h1-1-1p0-0-0-0-0-0-0-0-0h1-1-1p0-0-0-0-0-0-0-0-0h1-1-1p0-0-0-0-0-0-0-0----|

End of Verse 1.


Chorus 1:

F|-------------------------------------------------------------------------|
C|-------------------------------------------------------------------------|
G|-------------------5--5--5--7--7--7--------------------5--5--5-----------|
D|-8--8--8--8--8--8--------------------8--8--8--8--8--8-----------7--7~~-7-|


F|-----------------------------------------------------------------------|
C|----5--5--5~~~~------------------------5--5--5--5--5-------------------|
G|-3--3--3--3~~~~--5--5--5--7--7~~-5--3--3--3--3--3--3--5~~~~~-----------|
D|------------------------------------------------------------/7~~~~(7)\-|

End of Chorus 1.


Verse 2:

F|-----------------------------------------------------------------------------------------------|
C|-----------------------------------------------------------------------------------------------|
G|-----------------------------------------------------------------------------------------------|
D|3-3-3-3-3-3-3-3-3-3h4-4-4p3-3-3-3-3-3-3-3-3h4-4-4p3-3-3-3-3-3-3-3-3h4-4-4p3-3-3-3-3-3-3-3-3-3-3|


F|---------------------------------------------------------------------------------------------|
C|---------------------------------------------------------------------------------------------|
G|------------------------------------------------------------------------------------------10\|
D|0-0-0-0-0-0-0-0-0-0h1-1-1p0-0-0-0-0-0-0-0-0h1-1-1p0-0-0-0-0-0-0-0-0h1-1-1p0-0-0-0-0-0-0-0----|


F|-----------------------------------------------------------------------------------------------|
C|-----------------------------------------------------------------------------------------------|
G|-----------------------------------------------------------------------------------------------|
D|3-3-3-3-3-3-3-3-3-3h4-4-4p3-3-3-3-3-3-3-3-3h4-4-4p3-3-3-3-3-3-3-3-3h4-4-4p3-3-3-3-3-3-3-3-3-3-3|


F|---------------------------------------------------------------------------------------------|
C|---------------------------------------------------------------------------------------------|
G|------------------------------------------------------------------------------------------10\|
D|0-0-0-0-0-0-0-0-0-0h1-1-1p0-0-0-0-0-0-0-0-0h1-1-1p0-0-0-0-0-0-0-0-0h1-1-1p0-0-0-0-0-0-0-0----|

End of Verse 2.


Chorus 2:

F|-------------------------------------------------------------------------|
C|-------------------------------------------------------------------------|
G|-------------------5--5--5--7--7--7--------------------5--5--5-----------|
D|-8--8--8--8--8--8--------------------8--8--8--8--8--8-----------7--7~~-7-|


F|-----------------------------------------------------------------------|
C|----5--5--5~~~~------------------------5--5--5--5--5-------------------|
G|-3--3--3--3~~~~--5--5--5--7--7~~-5--3--3--3--3--3--3--5~~~~~-----------|
D|------------------------------------------------------------/7~~~~(7)\-|

End of Chorus 2.

Interlude 1:

F|---------------------9------------------------------------------9------------------|
C|-----------------0h7----------------------------------------0h7--------------------|
G|-7-----0-7h8p7p0-------7-----0-7h8p7p0-8--8-7-----0-7h8p7p0-------2----------------|
D|----0~~-------------------0~~------------------0~~-------------------5--3--2--3--2-|


F|--------------------------------------------------------------------------------------|
C|----------------------9--------------------------------------------9------------------|
G|------------------0h7------------------------------------------0h7--------------------|
D|-7--0~~-0-7-8p7p0-------7--0~~-0-7-8p7p0-8~~~-7--0~~-0-7-8p7p0-------3--2--3--5--3--5-|


F|------------------------------------------------------------------------------------------|
C|------------------------------------------------------------------------------------------|
G|------------------------------------------------------------------------------------------|
D|12p0-0-0-0-0-13p0-12p0-10p0-9p0-0-0-0-0-10p0-9p0-7p0-6p0-0-0-0-0-7p0-6p0-4p0-3-3-3-3-3-3--|

-------------|
-------------|
-------------|
-1-1-1-1-1-1-|


F|---------------------------------------------------------------------------------------|
C|---------------------------------------------------------------------------------------|
G|----------------------------------------------------------1--2--4-4-5-5-5-5-5-5--------|
D|-0-0-0-0-0-0--1--3--5--6-6-6-6-6-6--7--6--44--3-3-3-3-3-3-----------------------2--2-2-|

End of Interlude 1.

Guitar Solo:

F|------------------------------------------------------------------------------------------|
C|------------------------------------------------------------------------------------------|
G|------------------------------------------------------------------------------------------|
D|12p0-0-0-0-0-13p0-12p0-10p0-9p0-0-0-0-0-10p0-9p0-7p0-6p0-0-0-0-0-7p0-6p0-4p0-3-3-3-3-3-3--|

-------------|
-------------|
-------------|
-1-1-1-1-1-1-|


F|---------------------------------------------------------------------------------------|
C|---------------------------------------------------------------------------------------|
G|----------------------------------------------------------1--2--4-4-5-5-5-5-5-5--------|
D|-0-0-0-0-0-0--1--3--5--6-6-6-6-6-6--7--6--44--3-3-3-3-3-3-----------------------2--2-2-|


F|------------------------------------------------------------------------------------------|
C|------------------------------------------------------------------------------------------|
G|------------------------------------------------------------------------------------------|
D|12p0-0-0-0-0-13p0-12p0-10p0-9p0-0-0-0-0-10p0-9p0-7p0-6p0-0-0-0-0-7p0-6p0-4p0-3-3-3-3-3-3--|

-------------|
-------------|
-------------|
-1-1-1-1-1-1-|


F|---------------------------------------------------------------------------------------|
C|---------------------------------------------------------------------------------------|
G|----------------------------------------------------------1--2--4-4-5-5-5-5-5-5--------|
D|-0-0-0-0-0-0--1--3--5--6-6-6-6-6-6--7--6--44--3-3-3-3-3-3-----------------------2--2-2-|

End of Guitar Solo.


Chorus 2:

F|----------------------------------------------------------------------------------|
C|-----5--5--5~~~~~~~~-------5--5--5~~~~~~~~----------------------------------------|
G|-/3--3--3--3~~~~~~~~--3-3--3--3--3~~~~~~~~-3--3--3--3--3--3--5--5--5--5--7--7--7\-|
D|----------------------------------------------------------------------------------|


F|-------------------------------|
C|----5--5--5--5--5--------------|
G|-3--3--3--3--3--3--5~~~~-7~~~~-|
D|-------------------------------|

End of Chorus 2.

Interlude 2:

F|---------------------9------------------------------------------9------------------|
C|-----------------0h7----------------------------------------0h7--------------------|
G|-7-----0-7h8p7p0-------7-----0-7h8p7p0-8--8-7-----0-7h8p7p0-------2----------------|
D|----0~~-------------------0~~------------------0~~-------------------5--3--2--3--2-|


F|--------------------------------------------------------------------------------------|
C|----------------------9--------------------------------------------9------------------|
G|------------------0h7------------------------------------------0h7--------------------|
D|-7--0~~-0-7-8p7p0-------7--0~~-0-7-8p7p0-8~~~-7--0~~-0-7-8p7p0-------3--2--3--5--3--5-|

End of Interlude 2.


Outro:

F|--------------------------------------------------------|
C|--------------------------------------------------------|
G|----------5-----5--7~~~~~~~~~~~~(7)\--------------------|
D|-7--5--7-----7-----------------------0~~~~~~~~~~~~~~~~~~|


That's It.

Please Rate and Comment My Tab.
Thanks

Almost there ...

Sign in to get your own page with links to favourite songs and more. You are just one click away...

Login with Facebook Login with Google