Log in

One click and you are in

Login with Facebook Login with Google

Why sign up and log in

Guitar Tabs Explorer
Mastodon tabs for Circle of cysquatch

Guitar tabs

Circle Cysquatch
By Mastodon
Label: Warner bors.
From the Blood Mountain album

Tabbed by: Simon L Sweden
Mail: simon.lilja@hotmail.com

/ = slide up
\ = slide down
Tune down the whole guitar one step to A chord diagramD MajorD and then Low A chord diagramD MajorD sown to A.


Intro

D--12--0--12--0--12/15--0--11--0--11--0--8--0--0--8\7--||   Play 8 times
A------------------------------------------------------||
F------------------------------------------------------||
C------------------------------------------------------||
G------------------------------------------------------||
A------------------------------------------------------||

Vers

Part 1

D--------------------------||     Play 4 times
A--------------------------||
F--------------------------||
C--9-9---12--8-8---5--454--||
G--7-7---10--6-6---3--232--||
A--------------------------||

Vers

Part 2

D------------------------------------------------------------||  Play 2 times
A------------------------------------------------------------||
F------------------------------------------------------------||
C--5--6---10-9---9-10-9--9-10-12-----5--6--10-9--------------||
G--3--4---8--7---7-8--7--7-8--10-----3--4--8--7--------------||
A-------------------------------------------------1-2-1-2-3--||

Play once again from the top.

Could't figure the next part out jet, but after that its something like this....

D-----------------------------------------------------------------------------------------------||
A-----------------------------------------------------------------------------------------------||
G-----------------------------------------------------------------------------------------------||
C-----------------------------------------------------------------------------------------------||
G--2-------2---3-------2---3-------2---3-------4---5-------4---5-------4---5-------4---5--------||
A----0-0-0---0---0-0-0---0---0-0-0---0---0-0-0---0---2-2-2---2---2-2-2---2---2-2-2---2---2-2-2--||

Then something I could't do.

Song ending...

D--------------------------------------------------------------------------||  Play
some lyrics and then just endpart!
A--------------------------------------------------------------------------||
F--------------------------------------------------------------------------||
C--9-8-8-------------9-8-8-----------------9-8-8--------------------9-8-8--||
G--7-6-6-------------7-6-6-----------------7-6-6--------------------7-6-6--||
A--------3-1-0-1-0-1-------3-1-0-1-3-1-0-1-------3-1-0-1-3-1-0-1-0-1-------||

Almost there ...

Sign in to get your own page with links to favourite songs and more. You are just one click away...

Login with Facebook Login with Google