Guitar Tabs Explorer
Mastodon guitar tabs for Blue walsh

Blue Walsh tab


Be the first to rate


Ingo66Author: Ingo66

Jamplay guitar lessons

Blue Walsh tab by Mastodon

"Blue Walsh" is one of the tracks on American metal band Mastodon's "Cold Dark Place" EP from 2017. "Blue Walsh" is written by Mastodon. Guitars are played by Brent Hinds and Bill Kelliher.

Guitar tabs

Print
MASTODON
"Blue Walsh"
From the EP "Cold Dark Place" (2017)

Tuning = D chord diagramDD G chord diagramGG C chord diagramCC F chord diagramFF A chord diagramAA D chord diagramDD (one whole-step below standard)
Tempo = 100 bpm


Intro: w/hybrid picking
B||-------------------------7---10p7---|-------------------------------0-----||
B||--------------8---10p8--------------|--------------8---10p8-------0---0---||
F|| chord diagramF||F||--------0h9-------------------------|--------0h9--------------9-----------||
C|| chord diagramC||C||------------------------------------|-------------------------------------|| x2
B||-0h10p7-----7---7------7---7------7-|-0h10p7-----7---7------7---7---------||
B||------------------------------------|-------------------------------------||


Verse:
   Gtr I (Left)
B||-------------------------7---10p7---|-------------------------------0-----||
B||--------------8---10p8--------------|--------------8---10p8-------0---0---||
F|| chord diagramF||F||--------0h9-------------------------|--------0h9--------------9-----------||
C|| chord diagramC||C||------------------------------------|-------------------------------------|| x4
B||-0h10p7-----7---7------7---7------7-|-0h10p7-----7---7------7---7---------||
B||------------------------------------|-------------------------------------||


  Gtr II (Right)
D|-------------------------|---------------------------|
A|----------------------3--|---------------------------|
F| chord diagramF|F|-------------------4-----|------------------------0--|
C| chord diagramC|C|-2--5-4-2--2--5-4--------|-2--5-4-2--2--5-4-----4----|
G|-------------------------|-------------------5-------|
D|-------------------------|---------------------------|


D|-------------------------|-----------------------|
A|----------------------3--|-------------------0---|
F| chord diagramF|F|-------------------4-----|----------------5------|
C| chord diagramC|C|-2--5-4-2--2--5-4--------|-2--5-4-2--2--7--------|
G|-------------------------|-----------------------|
D|-------------------------|-----------------------|

  Both Gtrs
D|---0-0----0-0-0-0-0-|---0-0-------------------|
A|---8-7----8-7-7-7-7-|---8-7--7-8-7------------|
F| chord diagramF|F|--------------------|--------------9-7---7/9--|
C| chord diagramC|C|--------------------|------------------9------|
G|--------------------|-------------------------|
D|-8-----8------------|-8-----------------------|


B||-------------------------7---10p7---|-------------------------------0-----||
B||--------------8---10p8--------------|--------------8---10p8-------0---0---||
F|| chord diagramF||F||--------0h9-------------------------|--------0h9--------------9-----------||
C|| chord diagramC||C||------------------------------------|-------------------------------------|| x4
B||-0h10p7-----7---7------7---7------7-|-0h10p7-----7---7------7---7---------||
B||------------------------------------|-------------------------------------||


Pre-Chorus:
B||---0-0----0-0--0-0-0-|---0-0----0--0-0-0-0-|
B||---8-7----8-7--7-7-7-|---8-7----8--7-7-7-7-|
F|| chord diagramF||F||---------------------|---------------------|
C|| chord diagramC||C||---------------------|---------------------|
B||---------------------|---------------------|
B||-8-----8-------------|-8-----8-------------|


D|----0--0----0---0--0--0--0-|----0--0----0---0--0--0--0-||
A|---13-12---13--12-12-12-12-|---13-12---13--12-12-12-12-||
F| chord diagramF|F|---------------------------|---------------------------||
C| chord diagramC|C|---------------------------|---------------------------|| x2
G|---------------------------|---------------------------||
D|-0-------0-----------------|-0-------0-----------------||


D|-------------------|-------------------|
A|-----0-----0-0-0-0-|-----0-----0-0-0-0-|
F| chord diagramF|F|---2-----2---2-2-2-|---2-----2---2-2-2-|
C| chord diagramC|C|-------------------|-------------------|
G|-------------------|-------------------|
D|-3-----3-----------|-3-----3-----------|


Chorus:
B||----------|------------|----------|--------||
B||----------|------------|----------|--------||
F|| chord diagramF||F||-5--------|-(5)--------|----------|--------||
C|| chord diagramC||C||-5--------|-(5)--------|-2--------|-(2)----|| x2
B||-3--------|-(3)--------|-2--------|-(2)----||
B||-3--------|-(3)--------|-0--------|-(0)----||


D|----------|------------|
A|----------|------------|
F| chord diagramF|F|-5--------|-2----------|
C| chord diagramC|C|-5--------|-2----------|
G|-3--------|-0----------|
D|-3--------|------3--2--|


Verse 2:
   Gtr I (Left)
B||-------------------------7---10p7---|-------------------------------0-----||
B||--------------8---10p8--------------|--------------8---10p8-------0---0---||
F|| chord diagramF||F||--------0h9-------------------------|--------0h9--------------9-----------||
C|| chord diagramC||C||------------------------------------|-------------------------------------|| x4
B||-0h10p7-----7---7------7---7------7-|-0h10p7-----7---7------7---7---------||
B||------------------------------------|-------------------------------------||


  Gtr II (Right)
D|-------------------------|---------------------------|
A|----------------------3--|---------------------------|
F| chord diagramF|F|-------------------4-----|------------------------0--|
C| chord diagramC|C|-2--5-4-2--2--5-4--------|-2--5-4-2--2--5-4-----4----|
G|-------------------------|-------------------5-------|
D|-------------------------|---------------------------|


D|-------------------------|-----------------------|
A|----------------------3--|-------------------0---|
F| chord diagramF|F|-------------------4-----|----------------5------|
C| chord diagramC|C|-2--5-4-2--2--5-4--------|-2--5-4-2--2--7--------|
G|-------------------------|-----------------------|
D|-------------------------|-----------------------|

  Both Gtrs
D|---0-0----0-0-0-0-0-|---0-0-------------------|
A|---8-7----8-7-7-7-7-|---8-7--7-8-7------------|
F| chord diagramF|F|--------------------|--------------9-7---7/9--|
C| chord diagramC|C|--------------------|------------------9------|
G|--------------------|-------------------------|
D|-8-----8------------|-8-----------------------|


B||-------------------------7---10p7---|-------------------------------0-----||
B||--------------8---10p8--------------|--------------8---10p8-------0---0---||
F|| chord diagramF||F||--------0h9-------------------------|--------0h9--------------9-----------||
C|| chord diagramC||C||------------------------------------|-------------------------------------|| x4
B||-0h10p7-----7---7------7---7------7-|-0h10p7-----7---7------7---7---------||
B||------------------------------------|-------------------------------------||


Pre-Chorus 2:
B||---0-0----0-0--0-0-0-|---0-0----0--0-0-0-0-|
B||---8-7----8-7--7-7-7-|---8-7----8--7-7-7-7-|
F|| chord diagramF||F||---------------------|---------------------|
C|| chord diagramC||C||---------------------|---------------------|
B||---------------------|---------------------|
B||-8-----8-------------|-8-----8-------------|


D|----0--0----0---0--0--0--0-|----0--0----0---0--0--0--0-||
A|---13-12---13--12-12-12-12-|---13-12---13--12-12-12-12-||
F| chord diagramF|F|---------------------------|---------------------------||
C| chord diagramC|C|---------------------------|---------------------------|| x2
G|---------------------------|---------------------------||
D|-0-------0-----------------|-0-------0-----------------||


D|-------------------|-----------------------|
A|-----0-----0-0-0-0-|-----0-7-8-7-----------|
F| chord diagramF|F|---2-----2---2-2-2-|---2---------9-7---7-9-|
C| chord diagramC|C|-------------------|-----------------9-----|
G|-------------------|-----------------------|
D|-3-----3-----------|-3---------------------|


 7/4
D|---------------------------------------------------------|
A|---------------------------------------------------------|
F| chord diagramF|F|-7-9---7------------------0-7-9---7------------------7---|
C| chord diagramC|C|-----9---\7-5---7---5-7/9-------9---\7-5---7---5-7/9---9-|
G|--------------7---7----------------------7---7-----------|
D|---------------------------------------------------------|


Chorus 2:
 4/4
B||----------|------------|----------|--------||
B||----------|------------|----------|--------||
F|| chord diagramF||F||-5--------|-(5)--------|----------|--------||
C|| chord diagramC||C||-5--------|-(5)--------|-2--------|-(2)----|| x2
B||-3--------|-(3)--------|-2--------|-(2)----||
B||-3--------|-(3)--------|-0--------|-(0)----||


D|----------|------------|
A|----------|------------|
F| chord diagramF|F|-5--------|-2----------|
C| chord diagramC|C|-5--------|-2----------|
G|-3--------|-0----------|
D|----------|------3--2--|


Bridge:
D|-------------------4---7-------|-------------------------------------|
A|-----------5---8-5---7---7-5---|-------------5---5h8p5p0-8-8b9-8b8.5-|
F| chord diagramF|F|-------7-----6-----------------|---------7-----6---------------------|
C| chord diagramC|C|---6-----6---------------------|-----6-----6-------------------------|
G|-----7-------------------------|-------7-----------------------------|
D|-0---------------------------0-|-(0)---------------------------------|


D|-------------------4---7-------|-------------------------------|
A|-----------5---8-5---7---7-5---|-------------5---5h8p5p0-5-5~~-|
F| chord diagramF|F|-------7-----6-----------------|---------7-----6---------------|
C| chord diagramC|C|---6-----6---------------------|-----6-----6-------------------|
G|-----7-------------------------|-------7-----------------------|
D|-0---------------------------0-|-(0)---------------------------|


D|-------------------4---7-------|-------------------------------------|
A|-----------5---8-5---7---7-5---|-------------5---5h8p5p0-8-8b9-8b8.5-|
F| chord diagramF|F|-------7-----6-----------------|---------7-----6---------------------|
C| chord diagramC|C|---6-----6---------------------|-----6-----6-------------------------|
G|-----7-------------------------|-------7-----------------------------|
D|-0---------------------------0-|-(0)---------------------------------|


D|-------------------4---7-------|-------------------------------------------------|
A|-----------5---8-5---7---7-5---|-------------5---5h8p5p0-5h8p5p0-5h8p5p0-5h8p5p0-|
F| chord diagramF|F|-------7-----6-----------------|---------7-----6---------------------------------|
C| chord diagramC|C|---6-----6---------------------|-----6-----6-------------------------------------|
G|-----7-------------------------|-------7-----------------------------------------|
D|-0---------------------------0-|-(0)---------------------------------------------|


Bridge w/Vocals:
B||-------------------------------|------------------------------||
B||-------------------------------|------------------------------||
F|| chord diagramF||F||-------------------------------|------------------------------||
C|| chord diagramC||C||-------------------------------|-------------9--9-9-9-9-9-9-9-|| x4
B||-9/12—-11—-9—-6-—6-6-6-6-6-6-6-|-9/12-—11—9--7--7-7-7-7-7-7-7-||
B||-7/10---9--7--4--4-4-4-4-4-4-4-|-7/10--9--7-------------------||


Final Chorus:
B||----------|------------|----------|--------||
B||----------|------------|----------|--------||
F|| chord diagramF||F||-5--------|-(5)--------|----------|--------||
C|| chord diagramC||C||-5--------|-(5)--------|-2--------|-(2)----|| x2
B||-3--------|-(3)--------|-2--------|-(2)----||
B||-3--------|-(3)--------|-0--------|-(0)----||


D|----------|------------|
A|----------|------------|
F| chord diagramF|F|-5--------|-2----------|
C| chord diagramC|C|-5--------|-2----------|
G|-3--------|-0----------|
D|----------|------3--2--|


Outro:
B||-------------------------7---10p7---|-------------------------------0-----||
B||--------------8---10p8--------------|--------------8---10p8-------0---0---||
F|| chord diagramF||F||--------0h9-------------------------|--------0h9--------------9-----------||
C|| chord diagramC||C||------------------------------------|-------------------------------------|| x4
B||-0h10p7-----7---7------7---7------7-|-0h10p7-----7---7------7---7---------||
B||------------------------------------|-------------------------------------||



***********************************

| /   Slide up
| \   Slide down
| b   Bend
| h   Hammer-on
| p   Pull-off
| ~   Vibrato
|( )  Ghost note

Comment this song and these guitar tabs

Do you have corrections, comments on the guitar tabs, thoughts about the song or a message to the author? Write them below.