Log in

One click and you are in

Login with Facebook Login with Google

Why sign up and log in

Guitar Tabs Explorer
Mastodon tabs for Blood and thunder

Guitar tabs with lyrics

"Blood and Thunder"
Mastodon
Leviathan
copyright (c) Relapse records 2004
tabbed by Noach Chancer
nchancer@globalsolutech.com

in standard tuning down 1 whole step

KEY:
/ = slide up
\ = slide down
h = hammer on
p = pull off
bu = bend up till it reaches pitch of note in parentheses
bd = bend down ||  || ||       ||  ||  ||   ||   ||

Intro and Verses:
----------------------------------------------------------------------------|
----------------------------------------------------------------------------|
----------------------------------------------------------------------------|
-7----7/9----7/9----7/9----7/9--10----7/9--10----10-10-9\7/10\9-------------|
-5----5/9----5/9----5/7----5/7--8-----5/7--8------8--8-7\5/8\ 7-------------|
---00-----00-----00-----00---------00---------00----------------------------|

Choruses:
-----------------------------------------------------------------------------|
-----------------------------------------------------------------------------|
-----------------------------------------------------------------------------|
----------------------------------------12-12--9-9--6--12--9-9--6------------|
-2--8-8--5-5--11-11--7-7--14-14--11-11--10-10--7-7--4--10--7-7--4-7bu(8)bd(7-|
-0--6-6--3-3---9--9--9-9--12-12---9--9---------------------------------------|

Interlude/Solo section:
(low harmony)
----------------------------------------------------------------------------|
-----------------------5-------------------------5---5----------------------|
-4-5-4h5p4---4-5-4-5-7-----4-5-4h5p4---4-5-4-5-7---7------------------------|
-----------7-------------------------7--------------------------------------|
----------------------------------------------------------------------------|
----------------------------------------------------------------------------|

----------------------------------------------------------------------------|
-----------------------3-------------------------3---3----------------------|
-2-3-2h3p2---2-3-2-3-5-----2-3-2h3p2---2-3-2-3-5---5------------------------|
-----------5-------------------------5--------------------------------------|
(play begining of riffs like whats in brackets after u play through whats
[-------]-------------------------| above twice)
[-------]------------5------------|(same patterns follows for high harmony)
[-4-5-4-]--4-5-4-5-7--------------|
[-------]7------------------------|

(high harmony)
----------------------------------12---------------------------------12---12-|
-12-13-12h13p12----12-13-12-13-15----12-13-12h13p12----12-13-12-13-15---15---|
----------------14----------------------------------14-----------------------|
-----------------------------------------------------------------------------|
-----------------------------------------------------------------------------|
-----------------------------------------------------------------------------|

----------------------------------10---------------------------------10---10-|
-10-11-10h11p10----10-11-10-11-13----10-11-10h11p10----10-11-10-11-13---13---|
----------------12----------------------------------12-----------------------|
-----------------------------------------------------------------------------|
-----------------------------------------------------------------------------|
-----------------------------------------------------------------------------|

Rhythm during 1st 2 times of solo riff:
----------------------------------------------------------------------------|
----------------------------------------------------------------------------|
----------------------------------------------------------------------------|
-4--4----4--4----2--2----2--2-----------------------------------------------|
-2--2----2--2----0--0----0--0-----------------------------------------------|
----------------------------------------------------------------------------|

Interlude after Solo section(4X):
----------------------------------------------------------------------------|
----------------------------------------------------------------------------|
----------------------------------------------------------------------------|
-9-9-9-9-9-9-9-9-9-9-9-9--7-7-7-7--10-10-10-9--7-7-7-7-7-7-7-7--------------|
-7-7-7-7-7-7-7-7-7-7-7-7--5-5-5-5---8--8--8-7--5-5-5-5-5-5-5-5--------------|
----------------------------------------------------------------------------|

----------------------------------------------------------------------------|
----------------------------------------------------------------------------|
----------------------------------------------------------------------------|
-4-4-4-4--7-7-7-5--4-4-4-4-4-4-4-4------------------------------------------|
-2-2-2-2--5-5-5-3--2-2-2-2-2-2-2-2--6-6-6-6--9-9-9-7--6-6-6-6--4-4-4-4------|
------------------------------------4-4-4-4--7-7-7-5--4-4-4-4--2-2-2-2------|


Chorus twice and then verse twice


Outro:                                                      [Last 2 Chords]
------------------------------------------------------------[-------------]-|
-10-9-9\\\\-----------------7-9-9\\\\-----------------------[-------------]-|
-10-9-9\\\\-----------------7-9-9\\\\-----------------------[-------------]-|
-10-9-9\\\\-----------------7-9-9\\\\-----------------------[-7--9--------]-|
--8-7-7\\\\-----------------5-7-7\\\\-----------------------[-5--7--------]-|
------------2-1-0-1-2-1-0-1-----------2-1-0-1-2-1-0-1-------[-------------]-|

harmony during ourto is:
------------------------------|
------------------------------|
------------------------------|
-12/13-13-THEN-14\13-13-------|
-10/11-11------12\11-11-------|
The End

Almost there ...

Sign in to get your own page with links to favourite songs and more. You are just one click away...

Login with Facebook Login with Google