Log in

One click and you are in

Login with Facebook Login with Google

Why sign up and log in

Guitar Tabs Explorer
Masters Of Reality bass tabs for Deep in the hole

Deep In The Hole bass tab by Masters Of Reality

Masters Of Reality bass tabs for Deep in the hole

Bass tabs

Tab by John Parasite


Intro
G--------------|
D--------2-6-2-|
A-4-4-4-4------|
E--------------|
Verse
G---------------|
D--------2-6-2--|
A-4-4-4-4-------|
E---------------| 3X

G-------------|
D-------------|
A-2-2-2-2-2-2-|
E-------------|


Chorus
G--------------|
D--------------|
A--------------|
E-5-4-3-2-1-0--| 8X


Order

Intro 4X?

Verse 4X

Chorus

Verse 4X

Chorus

ⓘ Bass guitar tab for 'Deep In The Hole' by Masters Of Reality, a hard rock band formed in 1981 from Syracuse, New York, USA

Almost there ...

Sign in to get your own page with links to favourite songs and more. You are just one click away...

Login with Facebook Login with Google