Log in

One click and you are in

Login with Facebook Login with Google

Why sign up and log in

Guitar Tabs Explorer
Massive Attack bass tabs for Teardrop

Bass tabs with lyrics

Tuning: Standard (E A D G)


Intro: 0:00

 (Aadd9)
G|----------------|----------------|----------------|----------------|
D|----------------|----------------|----------------|----------------|
A|----------------|----------------|----------------|----------------| x7
E|----------------|----------------|----------------|----------------|
B|----------------|----------------|----------------|----------------|
 1 + 2 + 3 + 4 + 1 + 2 + 3 + 4 + 1 + 2 + 3 + 4 + 1 + 2 + 3 + 4 +
Piano Enters: 0:43

 (Aadd9)              (G)
G|----------------|----------------|----------------|----------------|
D|----------------|----------------|----------------|----------------|
A|----------------|----------------|----------------|----------------|
E|5-5---5---------|----------------|3-3---3---------|----------------|
B|----------------|--1---1/3---0---|----------------|--1---1/3---0---|
 1 + 2 + 3 + 4 + 1 + 2 + 3 + 4 + 1 + 2 + 3 + 4 + 1 + 2 + 3 + 4 +

 (D)                (Aadd9)
G|----------------|----------------|----------------|----------------|
D|----------------|----------------|----------------|----------------|
A|----------------|----------------|----------------|----------------|
E|----------------|----------------|5-5---5---------|----------------|
B|3-3---3---------|--1---1/3---0---|----------------|--1---1/3---0---|
 1 + 2 + 3 + 4 + 1 + 2 + 3 + 4 + 1 + 2 + 3 + 4 + 1 + 2 + 3 + 4 +

 (G)                (D)
G|----------------|----------------|----------------|----------------|
D|----------------|----------------|----------------|----------------|
A|----------------|----------------|----------------|----------------|
E|3-3---3---------|----------------|----------------|----------------|
B|----------------|--1---1/3---0---|3-3---3---------|--1---1/3---0---|
 1 + 2 + 3 + 4 + 1 + 2 + 3 + 4 + 1 + 2 + 3 + 4 + 1 + 2 + 3 + 4 +


Verse 1: 1:03

 (Aadd9)             (G)
G|----------------|----------------|----------------|----------------|
D|----------------|----------------|----------------|----------------|
A|----------------|----------------|----------------|----------------|
E|5-5---5---------|----------------|3-3---3---------|----------------|
B|----------------|--1---1/3---0---|----------------|--1---1/3---0---|
 1 + 2 + 3 + 4 + 1 + 2 + 3 + 4 + 1 + 2 + 3 + 4 + 1 + 2 + 3 + 4 +

 (D)                (Aadd9)
G|----------------|----------------|----------------|----------------|
D|----------------|----------------|----------------|----------------|
A|----------------|----------------|----------------|----------------|
E|----------------|----------------|5-5---5---------|----------------|
B|3-3---3---------|--1---1/3---0---|----------------|--1---1/3---0---|
 1 + 2 + 3 + 4 + 1 + 2 + 3 + 4 + 1 + 2 + 3 + 4 + 1 + 2 + 3 + 4 +

 (Aadd9)              (G)
G|----------------|----------------|----------------|----------------|
D|----------------|----------------|----------------|----------------|
A|----------------|----------------|----------------|----------------|
E|5-5---5---------|----------------|3-3---3---------|----------------|
B|----------------|--1---1/3---0---|----------------|--1---1/3---0---|
 1 + 2 + 3 + 4 + 1 + 2 + 3 + 4 + 1 + 2 + 3 + 4 + 1 + 2 + 3 + 4 +

 (D)                (Aadd9)
G|----------------|----------------|----------------|----------------|
D|----------------|----------------|----------------|----------------|
A|----------------|----------------|----------------|----------------|
E|----------------|----------------|5-5---5---------|----------------|
B|3-3---3---------|--1---1/3---0---|----------------|--1---1/3---0---|
 1 + 2 + 3 + 4 + 1 + 2 + 3 + 4 + 1 + 2 + 3 + 4 + 1 + 2 + 3 + 4 +

 (Fm7)               (G)
G|----------------|----------------|----------------|----------------|
D|----------------|----------------|----------------|----------------|
A|----------------|----------------|----------------|----------------|
E|1-1---1---------|----------------|3-3---3---------|----------------|
B|----------------|--1---1/3---0---|----------------|--1---1/3---0---|
 1 + 2 + 3 + 4 + 1 + 2 + 3 + 4 + 1 + 2 + 3 + 4 + 1 + 2 + 3 + 4 +

 (Aadd9)              (Aadd9)
G|----------------|----------------|----------------|----------------|
D|----------------|----------------|----------------|----------------|
A|----------------|----------------|----------------|----------------|
E|5-5---5---------|----------------|5-5---5---------|----------------|
B|----------------|--1---1/3---0---|----------------|--1---1/3---0---|
 1 + 2 + 3 + 4 + 1 + 2 + 3 + 4 + 1 + 2 + 3 + 4 + 1 + 2 + 3 + 4 +


Break 1: 1:40

 (Aadd9)             (Aadd9)
G|----------------|----------------|----------------|----------------|
D|----------------|----------------|----------------|----------------|
A|----------------|----------------|----------------|----------------| x2
E|5-5---5---------|----------------|5-5---5---------|----------------|
B|----------------|--1---1/3---0---|----------------|--1---1/3---0---|
 1 + 2 + 3 + 4 + 1 + 2 + 3 + 4 + 1 + 2 + 3 + 4 + 1 + 2 + 3 + 4 +


Verse 2: 1:53

 (Aadd9)              (G)
G|----------------|----------------|----------------|----------------|
D|----------------|----------------|----------------|----------------|
A|----------------|----------------|----------------|----------------|
E|5-5---5---------|----------------|3-3---3---------|----------------|
B|----------------|--1---1/3---0---|----------------|--1---1/3---0---|
 1 + 2 + 3 + 4 + 1 + 2 + 3 + 4 + 1 + 2 + 3 + 4 + 1 + 2 + 3 + 4 +

 (D)                (Aadd9)
G|----------------|----------------|----------------|----------------|
D|----------------|----------------|----------------|----------------|
A|----------------|----------------|----------------|----------------|
E|----------------|----------------|5-5---5---------|----------------|
B|3-3---3---------|--1---1/3---0---|----------------|--1---1/3---0---|
 1 + 2 + 3 + 4 + 1 + 2 + 3 + 4 + 1 + 2 + 3 + 4 + 1 + 2 + 3 + 4 +

 (Fm7)               (G)
G|----------------|----------------|----------------|----------------|
D|----------------|----------------|----------------|----------------|
A|----------------|----------------|----------------|----------------|
E|1-1---1---------|----------------|3-3---3---------|----------------|
B|----------------|--1---1/3---0---|----------------|--1---1/3---0---|
 1 + 2 + 3 + 4 + 1 + 2 + 3 + 4 + 1 + 2 + 3 + 4 + 1 + 2 + 3 + 4 +

 (Aadd9)              (Fm7)
G|----------------|----------------|----------------|----------------|
D|----------------|----------------|----------------|----------------|
A|----------------|----------------|----------------|----------------|
E|5-5---5---------|----------------|1-1---1---------|----------------|
B|----------------|--1---1/3---0---|----------------|--1---1/3---0---|
 1 + 2 + 3 + 4 + 1 + 2 + 3 + 4 + 1 + 2 + 3 + 4 + 1 + 2 + 3 + 4 +

 (D)                (G)
G|----------------|----------------|----------------|----------------|
D|----------------|----------------|----------------|----------------|
A|----------------|----------------|----------------|----------------|
E|----------------|----------------|3-3---3---------|----------------|
B|3-3---3---------|--1---1/3---0---|----------------|--1---1/3---0---|
 1 + 2 + 3 + 4 + 1 + 2 + 3 + 4 + 1 + 2 + 3 + 4 + 1 + 2 + 3 + 4 +

 (Aadd9)              (Aadd9)
G|----------------|----------------|----------------|----------------|
D|----------------|----------------|----------------|----------------|
A|----------------|----------------|----------------|----------------|
E|5-5---5---------|----------------|5-5---5---------|----------------|
B|----------------|--1---1/3---0---|----------------|--1---1/3---0---|
 1 + 2 + 3 + 4 + 1 + 2 + 3 + 4 + 1 + 2 + 3 + 4 + 1 + 2 + 3 + 4 +


Break 2: 2:30

 (Aadd9)              (Aadd9)
G|----------------|----------------|----------------|----------------|
D|----------------|----------------|----------------|----------------|
A|----------------|----------------|----------------|----------------| x4
E|5-5---5---------|----------------|5-5---5---------|----------------|
B|----------------|--1---1/3---0---|----------------|--1---1/3---0---|
 1 + 2 + 3 + 4 + 1 + 2 + 3 + 4 + 1 + 2 + 3 + 4 + 1 + 2 + 3 + 4 +


Verse 3: 2:55

 (Aadd9)              (G)
G|----------------|----------------|----------------|----------------|
D|----------------|----------------|----------------|----------------|
A|----------------|----------------|----------------|----------------|
E|5-5---5---------|----------------|3-3---3---------|----------------|
B|----------------|--1---1/3---0---|----------------|--1---1/3---0---|
 1 + 2 + 3 + 4 + 1 + 2 + 3 + 4 + 1 + 2 + 3 + 4 + 1 + 2 + 3 + 4 +

 (D)                (Aadd9)
G|----------------|----------------|----------------|----------------|
D|----------------|----------------|----------------|----------------|
A|----------------|----------------|----------------|----------------|
E|----------------|----------------|5-5---5---------|----------------|
B|3-3---3---------|--1---1/3---0---|----------------|--1---1/3---0---|
 1 + 2 + 3 + 4 + 1 + 2 + 3 + 4 + 1 + 2 + 3 + 4 + 1 + 2 + 3 + 4 +

 (Aadd9)              (G)
G|----------------|----------------|----------------|----------------|
D|----------------|----------------|----------------|----------------|
A|----------------|----------------|----------------|----------------|
E|5-5---5---------|----------------|3-3---3---------|----------------|
B|----------------|--1---1/3---0---|----------------|--1---1/3---0---|
 1 + 2 + 3 + 4 + 1 + 2 + 3 + 4 + 1 + 2 + 3 + 4 + 1 + 2 + 3 + 4 +

 (D)                (Aadd9)
G|----------------|----------------|----------------|----------------|
D|----------------|----------------|----------------|----------------|
A|----------------|----------------|----------------|----------------|
E|----------------|----------------|5-5---5---------|----------------|
B|3-3---3---------|--1---1/3---0---|----------------|--1---1/3---0---|
 1 + 2 + 3 + 4 + 1 + 2 + 3 + 4 + 1 + 2 + 3 + 4 + 1 + 2 + 3 + 4 +

 (Fm7)               (G)
G|----------------|----------------|----------------|----------------|
D|----------------|----------------|----------------|----------------|
A|----------------|----------------|----------------|----------------|
E|1-1---1---------|----------------|3-3---3---------|----------------|
B|----------------|--1---1/3---0---|----------------|--1---1/3---0---|
 1 + 2 + 3 + 4 + 1 + 2 + 3 + 4 + 1 + 2 + 3 + 4 + 1 + 2 + 3 + 4 +

 (Aadd9)              (Fm7)
G|----------------|----------------|----------------|----------------|
D|----------------|----------------|----------------|----------------|
A|----------------|----------------|----------------|----------------|
E|5-5---5---------|----------------|1-1---1---------|----------------|
B|----------------|--1---1/3---0---|----------------|--1---1/3---0---|
 1 + 2 + 3 + 4 + 1 + 2 + 3 + 4 + 1 + 2 + 3 + 4 + 1 + 2 + 3 + 4 +

 (G)                (Aadd9)
G|----------------|----------------|----------------|----------------|
D|----------------|----------------|----------------|----------------|
A|----------------|----------------|----------------|----------------|
E|3-3---3---------|----------------|5-5---5---------|----------------|
B|----------------|--1---1/3---0---|----------------|--1---1/3---0---|
 1 + 2 + 3 + 4 + 1 + 2 + 3 + 4 + 1 + 2 + 3 + 4 + 1 + 2 + 3 + 4 +


Bridge: 3:38

 (Aadd9)              (Fm7)
G|----------------|----------------|----------------|----------------|
D|----------------|----------------|----------------|----------------|
A|----------------|----------------|----------------|----------------|
E|5-5---5---------|----------------|1-1---1---------|----------------|
B|----------------|--1---1/3---0---|----------------|--1---1/3---0---|
 1 + 2 + 3 + 4 + 1 + 2 + 3 + 4 + 1 + 2 + 3 + 4 + 1 + 2 + 3 + 4 +

 (G)                (Aadd9)
G|----------------|----------------|----------------|----------------|
D|----------------|----------------|----------------|----------------|
A|----------------|----------------|----------------|----------------|
E|3-3---3---------|----------------|5-5---5---------|----------------|
B|----------------|--1---1/3---0---|----------------|--1---1/3---0---|
 1 + 2 + 3 + 4 + 1 + 2 + 3 + 4 + 1 + 2 + 3 + 4 + 1 + 2 + 3 + 4 +

 (Fm7)               (G)
G|----------------|----------------|----------------|----------------|
D|----------------|----------------|----------------|----------------|
A|----------------|----------------|----------------|----------------|
E|1-1---1---------|----------------|3-3---3---------|----------------|
B|----------------|--1---1/3---0---|----------------|--1---1/3---0---|
 1 + 2 + 3 + 4 + 1 + 2 + 3 + 4 + 1 + 2 + 3 + 4 + 1 + 2 + 3 + 4 +

 (Aadd9)              (Fm7)
G|----------------|----------------|----------------|----------------|
D|----------------|----------------|----------------|----------------|
A|----------------|----------------|----------------|----------------|
E|5-5---5---------|----------------|1-1---1---------|----------------|
B|----------------|--1---1/3---0---|----------------|--1---1/3---0---|
 1 + 2 + 3 + 4 + 1 + 2 + 3 + 4 + 1 + 2 + 3 + 4 + 1 + 2 + 3 + 4 +

 (G)                (G)
G|----------------|----------------|----------------|----------------|
D|----------------|----------------|----------------|----------------|
A|----------------|----------------|----------------|----------------|
E|3~--------------|----------------|----------------|----------------|
B|----------------|----------------|----------------|----------------|
 1 + 2 + 3 + 4 + 1 + 2 + 3 + 4 + 1 + 2 + 3 + 4 + 1 + 2 + 3 + 4 +

 (G)
G|----------------|----------------|
D|----------------|----------------|
A|----------------|----------------|
E|----------------|----------------|
B|----------------|----------------|
 1 + 2 + 3 + 4 + 1 + 2 + 3 + 4 +


Outro: 4:13

 (Aadd9)              (Aadd9)
G|----------------|----------------|----------------|----------------|
D|----------------|----------------|----------------|----------------|
A|----------------|----------------|----------------|----------------|
E|----------------|----------------|----------------|----------------|
B|----------------|----------------|----------------|----------------|
 1 + 2 + 3 + 4 + 1 + 2 + 3 + 4 + 1 + 2 + 3 + 4 + 1 + 2 + 3 + 4 +

 (Aadd9)              (Aadd9)
G|----------------|----------------|----------------|----------------|
D|----------------|----------------|----------------|----------------|
A|----------------|----------------|----------------|----------------| x3
E|5-5---5---------|5---------------|5-5---5---------|5---------------|
B|----------------|--1---1/3---0---|----------------|--1---1/3---0---|
 1 + 2 + 3 + 4 + 1 + 2 + 3 + 4 + 1 + 2 + 3 + 4 + 1 + 2 + 3 + 4 +

 (Fm7)               (G)
G|----------------|----------------|----------------|----------------|
D|----------------|----------------|----------------|----------------|
A|----------------|----------------|----------------|----------------|
E|1-1---1---------|----------------|3-3---3---------|----------------|
B|----------------|--1---1/3---0---|----------------|----------------|
 1 + 2 + 3 + 4 + 1 + 2 + 3 + 4 + 1 + 2 + 3 + 4 + 1 + 2 + 3 + 4 +

 (G)                (G)
G|----------------|----------------|----------------|----------------|
D|----------------|----------------|----------------|----------------|
A|----------------|----------------|----------------|----------------|
E|----------------|----------------|----------------|----------------|
B|----------------|----------------|----------------|----------------|
 1 + 2 + 3 + 4 + 1 + 2 + 3 + 4 + 1 + 2 + 3 + 4 + 1 + 2 + 3 + 4 +

 (Fm7)               (G)
G|----------------|----------------|----------------|----------------|
D|----------------|----------------|----------------|----------------|
A|----------------|----------------|----------------|----------------|
E|1-1---1---------|----------------|3-3---3---------|----------------|
B|----------------|--1---1/3---0---|----------------|----------------|
 1 + 2 + 3 + 4 + 1 + 2 + 3 + 4 + 1 + 2 + 3 + 4 + 1 + 2 + 3 + 4 +

 (G)                (G)
G|----------------|----------------|----------------|----------------|
D|----------------|----------------|----------------|----------------|
A|----------------|----------------|----------------|----------------|
E|----------------|----------------|----------------|----------------|
B|----------------|----------------|----------------|----------------|
 1 + 2 + 3 + 4 + 1 + 2 + 3 + 4 + 1 + 2 + 3 + 4 + 1 + 2 + 3 + 4 +

 (Fm7)               (G)
G|----------------|----------------|----------------|----------------|
D|----------------|----------------|----------------|----------------|
A|----------------|----------------|----------------|----------------|
E|1-1---1---------|----------------|3-3---3---------|----------------|
B|----------------|--1---1/3---0---|----------------|----------------|
 1 + 2 + 3 + 4 + 1 + 2 + 3 + 4 + 1 + 2 + 3 + 4 + 1 + 2 + 3 + 4 +

 (G)                (G)
G|----------------|----------------|----------------|----------------|
D|----------------|----------------|----------------|----------------|
A|----------------|----------------|----------------|----------------|
E|----------------|----------------|----------------|----------------|
B|----------------|----------------|----------------|----------------|
 1 + 2 + 3 + 4 + 1 + 2 + 3 + 4 + 1 + 2 + 3 + 4 + 1 + 2 + 3 + 4 +

 (Fm7)
G|----------------|----------------|----------------|----------------|
D|----------------|----------------|----------------|----------------|
A|----------------|----------------|----------------|----------------|
E|1~--------------|----------------|----------------|----------------|
B|----------------|----------------|----------------|----------------|
 1 + 2 + 3 + 4 + 1 + 2 + 3 + 4 + 1 + 2 + 3 + 4 + 1 + 2 + 3 + 4 +


-----------------
🏷Legend:

~ means let ring
-----------------

Almost there ...

Sign in to get your own page with links to favourite songs and more. You are just one click away...

Login with Facebook Login with Google