Log in

One click and you are in

Login with Facebook Login with Google

Why sign up and log in

Guitar Tabs Explorer
Massive Attack bass tabs for Mezzanine

Bass tabs

Tuning: Standard (E A D G)

4/4 time, 98 bpm. The bassline makes good use of ghost notes. One of the darkest tracks on the record.
Intro: 0:00

G|--------------------------------|--------------------------------|
D|--------------------------------|--------------------------------| x 4
A|--------------------------------|--------------------------------|
E|--------------------------------|--------------------------------|
 1 e + a 2 e + a 3 e + a 4 e + a 1 e + a 2 e + a 3 e + a 4 e + a


Verse 1: 0:19

G|--------------------------------|--------------------------------|
D|--------------------------------|--------------------------------| x 14
A|--------------------------------|--------------------------------|
E|0---1---0-0-1---0-0-1---0---1---|0---1---0-0-1---0-0-1---0---1---|
 1 e + a 2 e + a 3 e + a 4 e + a 1 e + a 2 e + a 3 e + a 4 e + a


Chorus: 1:33

G|--------------------------------|--------------------------------|
D|--------------------------------|--------------------------------|
A|----------------------------0~--|--------------------------------|
E|0---1---1---x-0-1---1---x-1-----|----------------x-x-2-----x-2---|
 1 e + a 2 e + a 3 e + a 4 e + a 1 e + a 2 e + a 3 e + a 4 e + a

G|--------------------------------|--------------------------------|
D|--------------------------------|--------------------------------|
A|----------------------------0~--|--------------------------------|
E|0---1---1---x-0-1---1---x-1-----|----------------0-0-1---0---1---|
 1 e + a 2 e + a 3 e + a 4 e + a 1 e + a 2 e + a 3 e + a 4 e + a


Verse 2: 1:43

G|--------------------------------|--------------------------------|
D|--------------------------------|--------------------------------|
A|--------------------------------|--------------------------------|
E|0---1---0-0-1---0-0-1---0---1---|0---1---0-0-1---0-0-1---0---1---|
 1 e + a 2 e + a 3 e + a 4 e + a 1 e + a 2 e + a 3 e + a 4 e + a

G|--------------------------------|--------------------------------|
D|--------------------------------|--------------------------------| x 4
A|----------------------------0~--|--------------------------------|
E|0---1---0-0-1---0-0-1---0-------|----------------0-0-1---0---1---|
 1 e + a 2 e + a 3 e + a 4 e + a 1 e + a 2 e + a 3 e + a 4 e + a

G|--------------------------------|--------------------------------|
D|--------------------------------|--------------------------------| x 4
A|--------------------------------|--------------------------------|
E|0---1---0-0-1---0-0-1---0---1---|0---1---0-0-1---0-0-1---0---1---|
 1 e + a 2 e + a 3 e + a 4 e + a 1 e + a 2 e + a 3 e + a 4 e + a

G|--------------------------------|--------------------------------|
D|--------------------------------|--------------------------------| x 3
A|----------------------------0~--|--------------------------------|
E|0---1---0-0-1---0-0-1---0-------|----------------0-0-1---0---1---|
 1 e + a 2 e + a 3 e + a 4 e + a 1 e + a 2 e + a 3 e + a 4 e + a

G|--------------------------------|--------------------------------|
D|--------------------------------|--------------------------------| x 2
A|--------------------------------|--------------------------------|
E|0---1---0-0-1---0-0-1---0---1---|0---1---0-0-1---0-0-1---0---1---|
 1 e + a 2 e + a 3 e + a 4 e + a 1 e + a 2 e + a 3 e + a 4 e + a


Chorus: 2:51

G|--------------------------------|--------------------------------|
D|--------------------------------|--------------------------------|
A|----------------------------0~--|--------------------------------|
E|0---1---1---x-0-1---1---x-1-----|----------------x-x-2-----x-2---|
 1 e + a 2 e + a 3 e + a 4 e + a 1 e + a 2 e + a 3 e + a 4 e + a

G|--------------------------------|--------------------------------|
D|--------------------------------|--------------------------------|
A|----------------------------0~--|--------------------------------|
E|0---1---1---x-0-1---1---x-1-----|----------------x-x-------------|
 1 e + a 2 e + a 3 e + a 4 e + a 1 e + a 2 e + a 3 e + a 4 e + a

G|--------------------------------|--------------------------------|
D|--------------------------------|--------------------------------|
A|----------------------------0~--|--------------------------------|
E|0---1---1---x-0-1---1---x-1-----|----------------x-x-2-----x-2---|
 1 e + a 2 e + a 3 e + a 4 e + a 1 e + a 2 e + a 3 e + a 4 e + a

G|--------------------------------|--------------------------------|
D|--------------------------------|--------------------------------|
A|----------------------------0~--|--------------------------------|
E|0---1---1---x-0-1---1---x-1-----|----------------x-x-------------|
 1 e + a 2 e + a 3 e + a 4 e + a 1 e + a 2 e + a 3 e + a 4 e + a


Bridge: 3:11

G|--------------------------------|--------------------------------|
D|--------------------------------|--------------------------------| x 2
A|--------------------------------|--------------------------------|
E|--------------------------------|--------------------------------|
 1 e + a 2 e + a 3 e + a 4 e + a 1 e + a 2 e + a 3 e + a 4 e + a

G|--------------------------------|--------------------------------|
D|--------------------------------|--------------------------------| x 4
A|--------------------------------|--------------------------------|
E|0-0-1---0---1---0-0-1---0---1---|0-0-1---0---1---0-0-1---0---1---|
 1 e + a 2 e + a 3 e + a 4 e + a 1 e + a 2 e + a 3 e + a 4 e + a

G|--------------------------------|--------------------------------|
D|--------------------------------|--------------------------------| x 4
A|----------------------------0---|----------------------------0---|
E|0-0-1---0---1---0-0-1---0-x-----|0-0-1---0---1---0-0-1---0-x-----|
 1 e + a 2 e + a 3 e + a 4 e + a 1 e + a 2 e + a 3 e + a 4 e + a


Break: 4:00

G|--------------------------------|--------------------------------|
D|--------------------------------|--------------------------------| x 6
A|--------------------------------|--------------------------------|
E|--------------------------------|--------------------------------|
 1 e + a 2 e + a 3 e + a 4 e + a 1 e + a 2 e + a 3 e + a 4 e + a

G|--------------------------------|
D|--------------------------------|
A|----------------------------0---|
E|--------------------------------|
 1 e + a 2 e + a 3 e + a 4 e + a


Outro: 4:31

G|--------------------------------|--------------------------------|
D|--------------------------------|--------------------------------| repeat as necessary
A|----------------------------0~--|--------------------------------|
E|0---1---1---x-0-1---1---x-1-----|----------------x-x-2-----x-2---|
 1 e + a 2 e + a 3 e + a 4 e + a 1 e + a 2 e + a 3 e + a 4 e + a


🏷Legend:
 x  =  ghost note
 ~  =  let ring

Almost there ...

Sign in to get your own page with links to favourite songs and more. You are just one click away...

Login with Facebook Login with Google