Log in

One click and you are in

Login with Facebook Login with Google

Why sign up and log in

Guitar Tabs Explorer
Massive Attack tabs for Be thankful for what youve got

Be Thankful For What You've Got tab - Massive Attack

Massive Attack tabs for Be thankful for what youve got

Guitar tabs with lyrics

MASSIVE ATTACK - BE THANKFUL FOR WHAT YOU'VE GOT

Intro/Verse/Chorus:

e:---9---9-----9-------9---9-----9-------9---9-----9-------9---9-----9--8--|
B:--10--10--x-10---x--10--10--x-10---x--10--10--x-10---x--10--10--x-10--9--|
G:---9---9--x--9---x---9---9--x--9---x---9---9--x--9---x---9---9--x--9--8--|
D:--11--11--x-11---x--11--11--x-11---x--11--11--x-11---x--11--11--x-11-10--|
A:---9---9--x--9---x---9---9--x--9---x---9---9--x--9---x---9---9--x--9--8--|
E:---x---x-----x-------x---x-----x-------x---x-----x-------x---x-----x--x--|



e:---7---7-----7-------7---7-----7-------7---7-----7-------7---7-----7--8--|
B:---8---8--x--8---x---8---8--x--8---x---8---8--x--8---x---8---8--x--8--9--|
G:---7---7--x--7---x---7---7--x--7---x---7---7--x--7---x---7---7--x--7--8--|
D:---9---9--x--9---x---9---9--x--9---x---9---9--x--9---x---9---9--x--9-10--|
A:---7---7--x--7---x---7---7--x--7---x---7---7--x--7---x---7---7--x--7--8--|
E:---x---x-----x-------x---x-----x-------x---x-----x-------x---x-----x--x--|




Lyrics:


Though you may not drive a great big cadillac
Gangster whitewalls tv antenna in the back
You may not have a car at all
But just remember brothers and sisters
You can still stand tall
Just be thankful for what you've got
Though you may not drive a great big cadillac
Diamonds in the back, sunroof top, diggin the scene
With the gangster lean
For what you've got

You may not have a car at all
But just remember brothers and sisters
You can still stand tall
Just be thankful for what you've got
Diamonds in the back, sunroof top, diggin' the scene
With the gangster lean ooh ooh ooh
Though you may not drive a great big cadillac
Gangster whitewalls tv antenna in the back
You may not have a car at all
But just remember brothers and sisters
You can still stand tall
Just be thankful for what you've got
Diamonds in the back, sunroof top, diggin the scene
With the Gangster lean

Almost there ...

Sign in to get your own page with links to favourite songs and more. You are just one click away...

Login with Facebook Login with Google