Log in

One click and you are in

Login with Facebook Login with Google

Why sign up and log in

Guitar Tabs Explorer
Massada tabs for Arumbai

Guitar tabs with lyrics

Title     : Arumbai
Album     : Pukul Tifa (literally translated: 'beats the drum')
Producer: Telstar / TCD 10108-2
Tabbed by / lyrics transcribed by: Dennis Vinkoert
E-Mail: vinkoert@zeelandnet.nl

This is one of Massada's greatest electric 'guitar songs' written by lead
guitarist Chris Latul back in 1979. The intrumental song Arumbai reflects,
albeit, in a greatly simplified manner, Massada's trade mark: principally
the characteristic instruments, such as congas, timbales, bongos drums and
numerous other percussion instruments. The very rythmic, swinging music of
Massada is also known as 'Latin Rock' or 'Percussion Rock'.

Try it and experience the restful inspiration of the rythm. Great song!
Mail me with comments, corrections etc...
ARUMBAI
by Massada
         A chord diagramD MajorD
e---|------------------------|------------------------|--------------------
B---|------------------------|------------------------|--------------------
G---|------------------------|------------------------|--------------------
D---|------------------------|----------------4---5---|--5/7-------7-----7-
A-0-|--5-------5---5---------|-5-----5---7------------|--------------------
E---|------------------------|------------------------|--------------------

                                 A chord diagramG minorGm
e---|------------------------|-------------------------|-------------------
B---|------------------------|-------------------------|-------------------
G---|------------------------|-------------------------|-------------------
D---|-------7---5---4/5\4----|-4/5------5----5/--------|-/5-----5----4/5\4-
A---|----------------------7-|-------------------------|-------------------
E---|------------------------|-------------------------|-------------------

                                 A chord diagramD MajorD
e---|------------------------|-------------------------|-------------------
B---|------------------------|-------------------------|-------------------
G---|------------------------|-------------------------|-------------------
D---|------------------------|-------------------------|-------------------
A---|-------------7-----5----|---0---------------------|-------------------
E---|------------------------|-------------------------|-------------------

                                 A chord diagramG minorGm
e---|------------------------|-------------------------|-------------------
B---|------------------------|-------------------------|-------------------
G---|------------------------|-------------------------|-------------------
D---|------------------------|-------------------------|---------2--4--5---
A---|--0------------------0--|--1----1--1--------------|--3--5-------------
E---|------------------------|-------------------------|-------------------

       A chord diagramD MajorD                         A chord diagramG minorGm
e---|------------------------|--------------------------|------------------
B---|------------------------|--------------------------|------------------
G---|------------------------|--------------------------|------------------
D---|--4/5\4-----------------|--------------------------|---------2--4--5--
A---|----------------------0-|--1--------1--1-----------|--3--5------------
E---|------------------------|--------------------------|------------------

        A chord diagramD MajorD                        A chord diagramG minorGm
e---|------------------------|-------------------------|-------------------
B---|------------------------|-------------------------|-------------------
G---|------------------------|-------------------------|-------------------
D---|---4/5\4--------------0-|--1-------1--1-----------|--1-----1------1---
A---|------------------------|-------------------------|-------------------
E---|------------------------|-------------------------|-------------------

       A chord diagramC majorC                                                           A chord diagramD MajorD
e---|------------------------|-------------------------|-------------------
B---|------------------------|-------------------------|-------------------
G---|------------------------|-------------------------|-------------------
D---|------------------------|-------------------------|-------------------
A---|--1/3--------3-----3/---|-/3----------3------3----|-----3/5---------0-
E---|------------------------|-------------------------|-------------------

**********************

"...Sioh, air matah tumpa,
kalau kami bersama-sama,
ingat Tanah-air ku tjinta..."

Almost there ...

Sign in to get your own page with links to favourite songs and more. You are just one click away...

Login with Facebook Login with Google