Log in

One click and you are in

Login with Facebook Login with Google

Why sign up and log in

Guitar Tabs Explorer
Massacration bass tabs for Bad defecation the bost thunder

Bad Defecation The Bost Thunder bass tab - Massacration

Massacration bass tabs for Bad defecation the bost thunder

Bass tabs

Album: Good Blood Headbangers (2009)
Bassist: Metal Avenger

Tuning: Half-Step Down
Duration 🏷Legend
---------------
W - whole
H - half
Q - quarter
E - 8th
S - 16th
T - 32nd
X - 64th
. - note dotted



Intro Riff

   H.      E E   H    H      H.      E E
F#||---------------------|--------------------|---------------------|
C#||------------------4--|--5--------7--------|---------------------|
G#||--7------------7-----|--------------------|--5------------------|
D#||---------------------|--------------------|---------------3--5--|


 H    H      H.      E E   H    H
--------------------|---------------------|--------------------|
--------------------|------------------4--|--5--------7--------|
-----------5--------|--7------------7-----|--------------------|
--7-----------------|---------------------|--------------------|

 H.      E E   H    H
---------------------|--------------------|
---------------------|--------------------|
--5------------------|-----------5--------|
---------------3--5--|--7-----------------|


Verses

  Q  E E Q  E E   Q  E E Q  Q    Q  E E Q  E E
|------------------------|-----------------------|------------------------|
|------------------------|-----------------------|------------------------|
|------------------------|-------------5---------|------------------------|
|--7----7--7--5----5--5--|--7----7--7-------8----|--7----7--7--5----5--5--|


 Q  E E Q  Q    Q  E E Q  E E   Q  E E Q  Q
-----------------------|------------------------|-----------------------|
-----------------------|------------------------|-----------------------|
------------------5----|------------------------|-------------5---------|
--7----7--7--8---------|--7----7--7--5----5--5--|--7----7--7-------8----|


 Q  E E Q  E E   Q  E E Q  Q
------------------------|-----------------------|
------------------------|-----------------------|
------------------------|------------------5----|
--7----7--7--5----5--5--|--7----7--7--8---------|


Chorus

  H.      E E   H    H      H.      E E
|---------------------|--------------------|---------------------|
|------------------4--|--5--------7--------|---------------------|
|--7------------7-----|--------------------|--5------------------|
|---------------------|--------------------|---------------3--5--|


 H    H      H.      E E   H    H
--------------------|---------------------|--------------------|
--------------------|------------------4--|--5--------7--------|
-----------5--------|--7------------7-----|--------------------|
--7-----------------|---------------------|--------------------|


 H.      E E   H    H
---------------------|--------------------|
---------------------|--------------------|
--5------------------|-----------5--------|
---------------3--5--|--7-----------------|


Bridge


  |--3--|         |--3--|
  E E E H.       E E E H.
|------------------------|------------------------|
|------------------------|------------------------|
|--7--7--7--7------------|--7--7--7--7------------|
|------------------------|------------------------|


  |--3--|         |--3--|
  E E E H.       E E E H.
|------------------------|------------------------|
|------------------------|------------------------|
|--7--7--7--7------------|--7--7--7--7------------|
|------------------------|------------------------|


Guitar Solo

  E E E E E E E E
|--------------------------|
|--------------------------|
|--7--7--7--7--7--7--7--7--|
|--------------------------|


 E E E E E E E E   E E E E E E E E
--------------------------|--------------------------|
--------------------------|--------------------------|
--5--5--5--5--5--5--5--6--|--7--7--7--7--7--7--7--7--|
--------------------------|--------------------------|


 |--3--| |--3--| |--3--| |--3--|
 E E E E E E E E E E E E   E E E E E E E E
--------------------------------------|--------------------------|
--4--4--4--4--4--4--5--5--5--5--5--5--|--------------------------|
--------------------------------------|--7--7--7--7--7--7--7--7--|
--------------------------------------|--------------------------|


 E E E E E E E E   E E E E E E E E
--------------------------|--------------------------|
--------------------------|--------------------------|
--5--5--5--5--5--5--5--6--|--7--7--7--7--7--7--7--7--|
--------------------------|--------------------------|


 |--3--| |--3--| |--3--| |--3--|
 E E E E E E E E E E E E
--------------------------------------|
--------------------------------------|
--------------------------------------|
--2--2--2--2--2--2--3--3--3--3--3--3--|


Break


  W
|-------------------|
|-------------------|
|--7----------------|
|-------------------|


      |----3----|                  |----3----|
 H    Q  Q  Q    W          H    Q  Q  Q
--------------------------|-------------------|--------------------------|
--------------------------|-------------------|--------------------------|
--L--------5----5----5----|--7----------------|--L--------5----5----5----|
--------------------------|-------------------|--------------------------|


Chorus until end


 H.      E E   H    H      H.      E E
|---------------------|--------------------|---------------------|
|------------------4--|--5--------7--------|---------------------|
|--7------------7-----|--------------------|--5------------------|
|---------------------|--------------------|---------------3--5--|


 H    H      H.      E E   H    H
--------------------|---------------------|--------------------|
--------------------|------------------4--|--5--------7--------|
-----------5--------|--7------------7-----|--------------------|
--7-----------------|---------------------|--------------------|


 H.      E E   H    H
---------------------|--------------------|
---------------------|--------------------|
--5------------------|-----------5--------|
---------------3--5--|--7-----------------|


End (throw some agressive licks)

  W
|-------------------|
|-------------------|
|--7----------------|

Almost there ...

Sign in to get your own page with links to favourite songs and more. You are just one click away...

Login with Facebook Login with Google