Log in

One click and you are in

Login with Facebook Login with Google

Why sign up and log in

Guitar Tabs Explorer
Willy Mason tabs for Oxygen

Guitar tabs

WILLY MASON.. OXYGEN.. WHERE THE HUMANS EAT.
TABBED BY JONESY

D---------------------------------------------
A---------------------------------------------
E--5--5-5--5-5--5-5--5-5--5-5--5-5--5-5--5-5-- etc

D---------------------------------------------
A---------------------------------------------
E--5-5--5-7--7-7--7-9--9-9--9-9--9-9--9-9--9-9 etc

D---------------------------------------------
A---------------------------------------------
E--9-9--9-11--11-11--11-12--12-12--12-12--12-12 etc  (X2)
A chord diagramE MajorE -7--------------------4-------5---------5
A chord diagramBB -7-----0--------------5-------5---------5
A chord diagramG+G -8-----1--------------6-------6---------5
A chord diagramD MajorD -7-----2--------------6-------7---------7
A chord diagramA augmentedA -9-----2--------------4-------7---------7
A chord diagramE MajorE -7-----0----------------------5---------5
..meet..on and on and on......world.....spinning

A chord diagramE MajorE ----------------4-------5-----5------4-------
A chord diagramBB -0--------------5-------5-----5------4------0
A chord diagramG+G -1--------------6-------6-----5------5------1
A chord diagramD MajorD -2--------------6-------7-----7------6------2
A chord diagramA augmentedA -2--------------4-------7-----7------6------2
A chord diagramE MajorE -0----------------------5-----5------4------0
  til I'm dizzy...     ...close..eyes..start..anew

(BACK TO BEGINNING)

other bit

E--------------2-----5--------------------------2-----5
B-0------------2-----5-------------0------------2-----5
G-1------------2-----6-------------1------------2-----6
D-2------------4-----7-------------2------------4-----7
A-2------------4-----7-------------2------------4-----7
E-0------------2-----5-------------0------------2-----5
  if I'm    ..dream  I'll weave   ..float     ..stream

E--4------------5-----------------------------------------
B--5------------5----------------------0------------------
G--6------------6----------------------1------------------
D--6------------7----------------------2------------------
A--4------------7----------------------2------------------
E---------------5----------------------0-------2----4----5
  each one..  ..speak,        to your relief
(BACK TO BEGINNING)

Almost there ...

Sign in to get your own page with links to favourite songs and more. You are just one click away...

Login with Facebook Login with Google