Log in

One click and you are in

Login with Facebook Login with Google

Why sign up and log in

Guitar Tabs Explorer
Mashina bass tabs for Ma ani ose lemaani

Bass tabs with lyrics

A Bass Tab for...

"Ma Ani Ose Lema'ani" By "Mashina"
---------------------------------------------
I listened to "Si Haregesh" this afternoon and I figured this out on my bass.
Hope you like it. I guess there are some additions or corrections, so please
tell me about them!
I have figured out "Pachi Show" on the bass but it's simplier...
(Yuck, hebrew does look ugly in english).

          - Danny Felsteiner -

---------------------------------------------
  Chorus:
G-|-------------|
D-|-------------| Repeat this along the chorus.
A-|-------------|
E-|-0--0s5--5s0-|

  Verse:
G-|-------------------------------|
D-|---------------------------0h2-| Repeat this along the verses.
A-|------------0h2-0--0h4-0h4-----|
E-|-0--0h4-0h4--------------------|

  Riff 1: (only second time)
G-|------------------|
D-|------------------| Repeat this only before the second and third chorus.
A-|------------------|
E-|-8--8s5-5--5s8----|

  Riff 2: (Ani lo af...)
G-|------------------|
D-|------------------| Repeat this after Riff1, but in each repetition add
A-|------------0h2-0-| another opened A to the music...
E-|-0--0h4-0h4-------|

  Riff 3: (After ani lo af in the second time...)
G-|---------------|
D-|---4-2-2-----2-| Repeat this before the third chorus I think.
A-|---------2-4---|
E-|-2-------------|

Have Fun!

Danny Felsteiner.

Almost there ...

Sign in to get your own page with links to favourite songs and more. You are just one click away...

Login with Facebook Login with Google