Log in

One click and you are in

Login with Facebook Login with Google

Why sign up and log in

Guitar Tabs Explorer
鈴木雅之 guitar tabs for Daddy daddy do

Guitar tabs

Tuning: Standard (E A D G B E)

e|-----1----3------4-6-4------------4----3------------4---4--4---------4-------------|
B|-4-----------------------4-2-4-------------4-2-4-2-----------------0--------0-2-0-4|
G|-----------------------------------------------------------------------------------|
D|-----------------------------------------------------------------------------------|
A|-----------------------------------------------------------------------------------|
E|-----------------------------------------------------------------------------------|

e|----------------------------4----------4-----------------------------------|
B|---------------0---4---4--------4--4--------4-----2-----4-----2-----4-----2|
G|-------1---3---------------------------------------------------------------|
D|-1-------------------------------------------------------------------------|
A|---------------------------------------------------------------------------|
E|---------------------------------------------------------------------------|

e|-----------------------------------4----4-------2---4-----4----------------|
B|---4----2-------0-----0------0---------------------------------0-----------|
G|-------------------3------------------------------------------------1------|
D|---------------------------------------------------------------------------|
A|---------------------------------------------------------------------------|
E|---------------------------------------------------------------------------|

e|--1-----4-------4--------4--2--4---------------------------2---4---------4-|
B|------------------------------------4----4---4-----2---4-----------0-------|
G|---------------------------------------------------------------------------|
D|---------------------------------------------------------------------------|
A|---------------------------------------------------------------------------|
E|---------------------------------------------------------------------------|

e|--4--------------2--2------4-----------------------------2--2--------------|
B|-------4---4--------------------------------0------------------0-----------|
G|--------------------------------1--1---3---------3--1--------------3----3--|
D|---------------------------------------------------------------------------|
A|---------------------------------------------------------------------------|
E|---------------------------------------------------------------------------|

e|--------------2---4--------4----4------------2--2---4----------------------|
B|-0--2--4--4------------0-------------4--4------------------------4---------|
G|-------------------------------------------------------1---1---------------|
D|---------------------------------------------------------------------------|
A|---------------------------------------------------------------------------|
E|---------------------------------------------------------------------------|

e|-------------------------4---------2-------4----4----6-----0-----4----0----|
B|-2---0------4---2--0-----------4-------4-----------------------------------|
G|---------------------------------------------------------------------------|
D|---------------------------------------------------------------------------|
A|---------------------------------------------------------------------------|
E|---------------------------------------------------------------------------|

e|------------------------2--------------3-----------------------------------|
B|----------0----2-------------4---4----------4-----2------4--2--4--2--0-----|
G|-3----3-------------3------------------------------------------------------|
D|------------------------------------------------------------------------3--|
A|---------------------------------------------------------------------------|
E|---------------------------------------------------------------------------|

e|--2-2--2--0----------------2---2----0--------------------2----0--0-------0-|
B|--------------4---2---0-------------------4----2---0-----------------------|
G|---------------------------------------------------------------------------|
D|---------------------------------------------------------------------------|
A|---------------------------------------------------------------------------|
E|---------------------------------------------------------------------------|

e|-0-------0--0------0-------0-----------------------------------------------|
B|----------------------------------2------4----4---2---4------4--4---2--4---|
G|---------------------------------------------------------------------------|
D|---------------------------------------------------------------------------|
A|---------------------------------------------------------------------------|
E|---------------------------------------------------------------------------|

e|------------------------------------------2--------------------------------|
B|--4----4-------4---------4---------4-----------4-----2-----2-----4------4--|
G|---------------------------------------------------------------------------|
D|---------------------------------------------------------------------------|
A|---------------------------------------------------------------------------|
E|---------------------------------------------------------------------------|

e|-1----3-----------4--6--4--------------4---3------------------4---4------4-|
B|-----------------------------4--2--4-------------4--2--4--2-----------0----|
G|---------------------------------------------------------------------------|
D|---------------------------------------------------------------------------|
A|---------------------------------------------------------------------------|
E|---------------------------------------------------------------------------|

e|-----------------------------------4---------4-----------------------------|
B|-0--2--0--4------------0---4---4-------4--4-------4--4--2-----4---2---0----|
G|------------------1--3-----------------------------------------------------|
D|--------------1------------------------------------------------------------|
A|---------------------------------------------------------------------------|
E|---------------------------------------------------------------------------|

e|-----------------------4----------------1---3----4--6--2--------------4---3|
B|--------------0----0-------0--2--0--4----------------------4--2--4---------|
G|---3-----1-----------------------------------------------------------------|
D|---------------------------------------------------------------------------|
A|---------------------------------------------------------------------------|
E|---------------------------------------------------------------------------|

e|-------------6---4-----4---4-------4------------------------1-------4--2--1|
B|--4--2--2----------------------0-------0--2--0--4-----0--4-------2---------|
G|---------------------------------------------------------------------------|
D|---------------------------------------------------------------------------|
A|---------------------------------------------------------------------------|
E|---------------------------------------------------------------------------|

e|----------4-----------6--------------------------------------7-6-7--7-4--4-2-4-2-4-7---4-|
B|-2--4--4------4--4-------4--2---4----2--4-----2-----4---2--------------------------------|
G|-----------------------------------------------------------------------------------------|
D|-----------------------------------------------------------------------------------------|
A|-----------------------------------------------------------------------------------------|
E|-----------------------------------------------------------------------------------------|

↓ Add and view comments below ↓

What do you think about this song and these tabs?

Add your comments, questions, rant or a thumbs up below.

Almost there ...

Sign in to get your own page with links to favourite songs and more. You are just one click away...

Login with Facebook Login with Google