Log in

One click and you are in

Login with Facebook Login with Google

Why sign up and log in

Guitar Tabs Explorer
Richard Marx guitar tabs for Haunt me tonight

Guitar tabs

Solo:
e|------------8/10-11--------------10-10h11-----------13/15~-13p11-10-11-13--------------|
B|--------6/8---------8\6-6\4-6/8~----------8-------------------------------11h13-11-13~-|
G|----7-8--------------------------------------10\5~-------------------------------------|
D|-10------------------------------------------------------------------------------------|
A|---------------------------------------------------------------------------------------|
E|---------------------------------------------------------------------------------------|

e|-13b15--13p11-10-11-13---------------------8--------------------------------------|
B|-----------------------11h13-11\8---11b13~---11-8---------------------------------|
G|--------------------------------------------------10pbr12p8-10-10b11-8h10-8qb-----|
D|------------------------------------------------------------------------------10~-|
A|----------------------------------------------------------------------------------|
E|----------------------------------------------------------------------------------|

e|-11-10---------------------|
B|-------8-------------------|
G|---------8-7\5-7-----------|
D|-----------------5~/8-10~--|
A|---------------------------|
E|---------------------------|

************************************

| h   Hammer-on
| p   Pull-off
| /   Slide up
| \   Slide down
| ~   Vibrato
| b   Bend
| br  Bend and release
| pbr Pre-bend release
| qb  Quarter bend

Other versions of Haunt Me Tonight

Haunt me tonightChords

Almost there ...

Sign in to get your own page with links to favourite songs and more. You are just one click away...

Login with Facebook Login with Google