Log in

One click and you are in

Login with Facebook Login with Google

Why sign up and log in

Guitar Tabs Explorer
Groucho Marx tabs for Everyone says i love you

Everyone Says I Love You tab by Groucho Marx

Groucho Marx tabs for Everyone says i love you

Guitar tabs with lyrics

EVERYONE SAYS I LOVE YOU
                           As recorded by Groucho Marx

Words and Music by Harry Ruby & Bert Kalmar
Arranged by Groucho Marx
Transcribed by Justin Greenwood

         A chord diagramBb/DBb/D                  A chord diagramEb MajorEb                   A chord diagramBb majorBb                   A chord diagramF7F7
      x x 0 3 x x          x x 1 0 4 x          x 1 3 3 3 1          1 x 1 2 4 x

           A chord diagramC majorC                  F7II                  A chord diagramA/GA/G                 A chord diagramEb/GEb/G
      x x 4 3 5 x          x x 3 2 4 x          x x 6 3 3 x         x 10 8 8 8 x

         A chord diagramEm/GEm/G                  A chord diagramF#6F#6                  A chord diagramG7G7                  A chord diagramBb/FBb/F
      x x 5 0 5 x          x x 4 3 4 x          3 2 0 0 3 1          x x 3 3 3 x

         BbVI                Eb/GIII               A7/E                 Dm/A
      x x 8 7 6 x          x x 5 3 4 3          x x 2 2 2 3          x 0 x 2 3 1

           A chord diagramFF                   A chord diagramC7C7                  Bm/F#
      1 3 3 2 1 1          x 3 2 3 1 0          2 x x 4 3 2

Gtr I (E A D G B E) - ’Untitled’

  Q=120(8=s8)
  A chord diagramBb/DBb/D             A chord diagramEb MajorEb               N.C.              A chord diagramEb MajorEb
 4/4
  Gtr I
  A chord diagramE MajorE A chord diagramE MajorE A chord diagramE MajorE Q  A chord diagramE MajorE A chord diagramE MajorE A chord diagramE MajorE   A chord diagramE MajorE A chord diagramE MajorE A chord diagramE MajorE Q  A chord diagramE MajorE A chord diagramE MajorE A chord diagramE MajorE   A chord diagramE MajorE A chord diagramE MajorE A chord diagramE MajorE A chord diagramE MajorE A chord diagramE MajorE A chord diagramE MajorE A chord diagramE MajorE A chord diagramE MajorE   A chord diagramE MajorE A chord diagramE MajorE A chord diagramE MajorE Q Q  A chord diagramE MajorE
|----------------|----------------|-----------------|---------------|
|----------------|-4-4---4--4-----|-----------1-----|-4-4---4-------|
|-3-3---3----3-2-|-0-0---0--0-----|-----0-2-3---3-2-|-0-0---0-------|
|-0-0---0----0---|-1-1---1------0-|-3---------------|-1-1---1----0--|
|----------------|----------------|-----------------|---------------|
|----------------|----------------|-----------------|---------------|

  N.C.                               A chord diagramBb majorBb            A chord diagramF7F7    A chord diagramC majorC  F7II
  A chord diagramE MajorE A chord diagramE MajorE A chord diagramE MajorE A chord diagramE MajorE A chord diagramE MajorE A chord diagramE MajorE A chord diagramE MajorE A chord diagramE MajorE   A chord diagramE MajorE A chord diagramE MajorE A chord diagramE MajorE A chord diagramE MajorE A chord diagramE MajorE A chord diagramE MajorE Q    Q  Q  Q  Q    Q  Q  Q  Q
|-----------------|----------------|-------------|------------|
|---------1-------|-4---4-3-1---3--|----3-----4--|----3--5--4-|
|---0-2-3---3-2-3-|-------------2--|----3-----2--|----3--3--2-|
|-3---------------|----------------|-3-----1-----|-3-----4--3-|
|-----------------|----------------|-1-----------|-1----------|
|-----------------|----------------|-------1-----|------------|


  A chord diagramBb majorBb             A chord diagramF7F7            A chord diagramBb majorBb    A chord diagramA/GA/G     A chord diagramEb/GEb/G
  Q  Q  Q  A chord diagramE MajorE A chord diagramE MajorE   Q  Q  Q  Q    Q  Q  Q  Q      Q  Q   Q  Q
|--------------|-------------|-------------|-----------------|
|----3-----3---|----4-----4--|----3-----3--|------8------8---|
|----3-----3---|----2-----2--|----3-----3--|------8------8---|
|-3-----3----3-|-1-----1-----|-3-----6-----|----------8------|
|-1-----1------|-------------|-1-----------|-/10-----10------|
|--------------|-------1-----|-------------|-----------------|


  A chord diagramBb majorBb                  A chord diagramF7F7      A chord diagramBb majorBb            Em/F#6F7II
  Q  Q  Q  Q    Q  Q  Q  Q    Q  Q  Q  Q    Q  Q  Q  Q
|-------------|-------------|-------------|------------|
|----3-----3--|----------4--|----3-----3--|-5--4--4--4-|
|----3-----3--|----2-----2--|----3-----3--|-0--3--2--2-|
|-3-----3-----|----1-----1--|-3-----3-----|-5--4--3----|
|-1-----1-----|-------------|-1-----1-----|------------|
|-------------|-3--2--1-----|-------------|------------|


  A chord diagramBb majorBb     A chord diagramG7G7       A chord diagramF7F7             A chord diagramBb/FBb/F  BbVI     A chord diagramEb/GEb/G
  Q  A chord diagramE MajorE A chord diagramE MajorE Q  A chord diagramE MajorE A chord diagramE MajorE   Q  Q  Q  A chord diagramE MajorE A chord diagramE MajorE   Q  Q  A chord diagramE MajorE  A chord diagramE MajorE Q     Q  Q   Q  Q
|-----------1---|--------------|--------------|-----------------|
|----3------3---|----4-----4---|----3-----6---|------8------8---|
|-3--3------0---|----2-----2---|----3-------7-|------8------8---|
|-3-----------3-|-1-----1----5-|-3-----8----8-|---8------8------|
|-1-------------|--------------|--------------|-/10-----10------|
|------4-3------|--------------|--------------|-----------------|


  A chord diagramBb majorBb                  A chord diagramF7F7      A chord diagramBb majorBb    A chord diagramF7F7      A chord diagramBb majorBb
  Q  Q  Q  Q    Q  Q  Q  Q    Q  Q  Q  Q    Q  Q  Q  Q
|-------------|-------------|-------------|--------------|
|----3-----3--|----------4--|----3-----4--|----3--3--3---|
|----3-----3--|----2-----2--|----3-----2--|----3--3--3---|
|-3-----3-----|----1-----1--|-3-----1-----|-3------------|
|-1-----1-----|-------------|-1-----------|-1------------|
|-------------|-3--2--1-----|-------1-----|--------------|


  Dm/A          A7/E          Dm/A           A chord diagramG7G7
  Q  Q  Q  Q    Q  Q  Q  Q    Q  Q  Q  A chord diagramE MajorE A chord diagramE MajorE   Q  Q  Q  Q
|----1--1--1--|----3--3--3--|----1--1--1---|----1--1--1---|
|----3--3--3--|----2--2--2--|----3--3--3---|----3--3--3---|
|----2--2--2--|----2--2--2--|----2--2--2---|----0--0--0---|
|-------------|-2-----------|--------------|--------------|
|-0-----------|-------------|-0------------|--------------|
|-------------|-------------|------------4-|-3------------|


  A chord diagramFF             A chord diagramC7C7            Bm/F#         A chord diagramF7F7
  Q  Q  Q  Q    Q  Q  Q  Q    Q  Q  Q  Q    Q  Q  Q  Q
|----1--1--1--|----0--0--0--|----2--2--2--|----1--1--1---|
|----1--1--1--|----1--1--1--|----4--4--4--|----4--4--4---|
|----2--2--2--|----3--3--3--|----3--3--3--|----2--2--2---|
|-3-----------|-------------|-------------|--------------|
|-------------|-3-----------|-------------|--------------|
|-1-----------|-------------|-2-----------|-1------------|


  A chord diagramBb majorBb     A chord diagramG7G7       A chord diagramF7F7    F7II    A chord diagramBb majorBb    A chord diagramA/GA/G     Eb/GIII
  Q  A chord diagramE MajorE A chord diagramE MajorE Q  A chord diagramE MajorE A chord diagramE MajorE   Q  Q  Q  Q    Q  Q  Q  Q    Q  Q  Q  Q
|-----------1---|-------------|-------------|----3-----3---|
|----3------3---|----4-----4--|----3-----3--|----4-----4---|
|----3------0---|----2-----2--|----3-----3--|----3-----3---|
|-------------3-|-1-----3-----|-------6-----|-5-----5------|
|-1-------------|-------------|-1-----------|--------------|
|------4-3------|-------------|-------------|--------------|


  A chord diagramBb majorBb            Eb/GIIF7II    A chord diagramBb majorBb                  A chord diagramF7F7
  Q  Q  Q  Q    Q  Q  Q  Q    Q  Q  Q  Q    Q  Q   H
|-------------|-------------|-------------|-------^1----*|
|----3-----3--|----4-----4--|----3-----3--|----3--^4----*|
|----3-----3--|----3-----2--|----3-----3--|----3--^2----*|
|-------------|-5-----3-----|-------3-----|-------^1----*|
|-1-----1-----|-------------|-1-----------|-1-----------*|
|-------------|-------------|-------------|-------^1----*|


Duration 🏷Legend
---------------
W - whole; H - half; Q - quarter; A chord diagramE MajorE - 8th; S - 16th; T - 32nd; X - 64th; a - acciaccatura
+ - note tied to previous; . - note dotted; .. - note double dotted
Uncapitalized letters represent notes that are staccato (1/2 duration)
Irregular groupings are notated above the duration line
Duration letters will always appear directly above the note/fret number it represents the
duration for.  Duration letters with no fret number below them represent rests.  Multi-
bar rests are notated in the form Wxn, where n is the number of bars to rest for.  Low
melody durations appear below the staff

Tablature 🏷Legend
----------------
 h   - hammer-on
 p   - pull-off
 b   - bend
 pb  - pre-bend
 r   - bend release (if no number after the r, then release immediately)
 /\  - slide into or out of (from/to ¨nowhere¨)
 s   - legato slide
 S   - shift slide
<n>  - natural harmonic
[n]  - artificial harmonic
n(n) - tapped harmonic
 ~   - vibrato
 tr  - trill
 T   - tap
 TP  - trem. picking
 PM  - palm muting
\n/  - tremolo bar dip; n = amount to dip
 \n  - tremolo bar down
 n/  - tremolo bar up
/n\  - tremolo bar inverted dip
 =   - hold bend; also acts as connecting device for hammers/pulls
 <>  - volume swell (louder/softer)
 x   - on rhythm slash represents muted slash
 o   - on rhythm slash represents single note slash

Misc 🏷Legend
-----------
 |  - bar
||  - double bar
||o - repeat start
o|| - repeat end
*|  - double bar (ending)
 :  - bar (freetime)
 $  - Segno
 &  - Coda
Tempo markers - <E/E./Q/Q./H/H.> = BPM(8/16=s8/s16), where s8 = swing 8ths, s16 = swing 16ths


***************************************************************************************
* Generated using Power Tab Editor by Brad Larsen - http://powertab.guitarnetwork.org *
***************************************************************************************

Lyrics
Everyone says ¨I love you¨
But just what they say it for I never knew
It’s just inviting trouble for the poor sucker who
Says I love you
Take a pair of rabbits who
Get stuck on each other and begin to woo
And pretty soon you’ll find a million more rabbits who
Say I love you
When the lion gets feelin’ frisky and begins to roar
There’s another lion who knows just what he’s roaring for
Everything that every grew
The goose and the gander and the gosling, too.
The duck upon the water when he feels that way, too
Says ¨quack quack quack¨

Almost there ...

Sign in to get your own page with links to favourite songs and more. You are just one click away...

Login with Facebook Login with Google