Log in

One click and you are in

Login with Facebook Login with Google

Why sign up and log in

Guitar Tabs Explorer
Marvelous 3 chords for Grant park

Guitar chords with lyrics

This one's pretty simple.  In fact, most marvelous 3 songs are, so if you
want me to tab one, email me at necropolis77@email.com.
Anyway, the main problem with tabbing this song is the sound effects playing
under the song.  I just mute chord that part, but I included a tab of what I
think the notes are.
Verse and intro
A chord diagramG+G       A chord diagramD MajorD       A chord diagramC majorC       Bbm(CM7 )
------------------------------
------------------------------
---------7--7----5--5----5--5-
-5--5----7--7----5--5----5--5-
-5--5----5--5----3--3----2--3-
-3--3-------------------------


Chorus:
You can do this two different ways.  You can play the A chord diagramG+G an octave higher or
you can choose not to, pretty straight forward.

Here's it with the octave
A chord diagramG+G             A chord diagramD MajorD             A chord diagramC majorC
---------------------------------------------------
-8--8--8--8-8--------------------------------------
-7--7--7--7-7--7--7--7--7-7--5--5-5-5--5-5-5--5-5-5
-5--5--5--5-5--7--7--7--7-7--5--5-5-5--5-5-5--5-5-5
---------------5--5--5--5-5--3--3-3-3--3-3-3--3-3-3
---------------------------------------------------

Here's the weird slide sound effect thing

------------
------------
-/4h5p4-7p5-
------------
------------
------------
Most fills and licks revolve around this, too.

Pretty simple, eh?  That's all I know, I'm tabbing from memory.  Good luck.

--Nomad--

Almost there ...

Sign in to get your own page with links to favourite songs and more. You are just one click away...

Login with Facebook Login with Google