Log in

One click and you are in

Login with Facebook Login with Google

Why sign up and log in

Guitar Tabs Explorer
John Martyn tabs for Cocaine

Guitar tabs with lyrics

Standard tuning. Capo 5th.

TAB for Cocaine by Andy Stephen, September 1999. (gffwillie@guitarfreaksforum.com)
-------------------------------------------------------------------------------------------------

Amin

E-----0--------------|--------------------|-----0--------------|--------------------|
B----------1-------1-|----------0---------|----------1-------1-|----------0---------|
G-----2--------------|-----0h1-----1-0h2--|-----2--------------|-----0h1-----1-0h2--|
D------------2-------|-2----------2-------|------------2-------|-2----------2-------|
A-0------------------|-----------------0--|--------------------|-----------------0--|
E--------3-------1---|-------0------------|--------3-------1---|-------0------------|
Did     story about            She had a
you hear a       Cocaine     Lill?     cocaine     house on cocaine    hill.
Amin

E-----0--------------|--------------------|-----0--------------|--------------------|
B----------1-------1-|----------0---------|----------1-------1-|----------0---------|
G-----2--------------|-----0h1-----1-0h2--|-----2--------------|-----0h1-----1-0h2--|
D------------2-------|-2----------2-------|------------2-------|-2----------2-------|
A--------------------|-----------------0--|--------------------|-----------------0--|
E--------3-------1---|-------0------------|--------3-------1---|-------0------------|
She'd a          cocaine     cat       She even    had a   cocaine     rat    And it's
           cocaine dog 'n a


A chord diagramE MajorE
E-----0--------------|--------------------|-----0--------------|--------------------|
B----------1-------1-|----------0---------|----------1-------1-|----------0---------|
G-----2--------------|-----0h1-----1-0h2--|-----2--------------|-----0h1-------1----|
D------------2-------|-2----------2-------|------------2-------|-2----------2-------|
A--------------------|-----------------0--|--------------------|--------------------|
E--------3-------1---|-------0------------|--------3-------1---|-------0------------|
 all......                   round my   brain

A chord diagramC majorC

E------3---------3---|--------3-------0---|--------------------|-----------0--------|
B--1--------1--------|---1--------1-------|-3~-------1-------1-|-------1h3---3~---1-|
G----0---------0-----|------0-------0-----|-----0-h2-----0h2---|--0h2-----------2---|
D--------------------|--------------------|------------3------3|---------3---3------|
A-3-------3----------|--3--------3-------3|--------------------|------------------3-|
E--------------------|--------------------|-----1--------1-----|--1---------1-------|
Bin walkin round 10th street  and   Main;  Bin looking for a girlie to give
                                                                    me cocaine.

           A chord diagramC majorC

E-0--3-----0----0---3|---0-----------0----|---------3----------|--------------------|
B-------------3------|------3---1------1--|--------------1-----|--------------------|
G-0-------------0----|-------------0------|---------0-------00-|--------------------|
D--------------------|------0-------------|---0----------------|--------------------|
A------3-------------|----------3---------|------3------3------|--------------------|
E----------3---------|-3------------------|--------------------|--------------------|
Cocaine    sure runnin round my brain.

Repeat for next section


E----0--------3--0---|-0------------------|-----------0--------|0-3---------------------|
B------3--0--------3~|----------1-------1-|-------1h3---3~---1-|----0-----0-1-5-4-3---1-|
G--0h1---------------|-----0-h2-----0h2---|--0h2-----------2---|0------0h2----------0---|
D------2------2----2-|------------3------3|---------3---3------|------0---0---5-4-3-----|
A--------------------|--------------------|------------------3-|------------3---------3-|
E-0---------0-----0--|-----1--------1-----|--1---------1-------|----3---------------3---|
Hey baby,             This old cocaine's making me sick,       Cocaine....

Other versions of Cocaine

CocaineChords

Almost there ...

Sign in to get your own page with links to favourite songs and more. You are just one click away...

Login with Facebook Login with Google