Log in

One click and you are in

Login with Facebook Login with Google

Why sign up and log in

Guitar Tabs Explorer
John Martyn tabs for Back down the river

Guitar tabs

Full credit for this goes to Jared White (whitej@lincoln.ac.nz), so please
feel free to flame him for my typing mistakes.


Back Down the River  - John Martyn
~~~~~~~~~~~~~~~~~~~
Transcribed by Jared White.

CACGCE tuning.
Capo 1st fret.

4/4 timing, MM = 138.

INTRO:

||-0h3-------3---5-|-3---------0-----|-1---------1---0-|-1-----1---------|
||-------0---------|---0---5-------0-|-------0---------|---0-------0---0-|
||-----4-------4---|-----4-------4---|-----2-------2---|-----2-------2---|
||-4-------4-------|-4-------4-------|-0h2-----2-------|-2-------2-------|
||-----------------|-----------------|-----------------|-----------------|
||-----------------|-----------------|-----------------|-----------------|


|-0h3-------5p3---|-----3-----3-----|-1---------1-----|-1-----1---------||
|-------0-------0-|---5---5-------0-|-------0-------0-|---0-------0-----||
|-----4-------4---|-----4-------4---|-----2-------2---|-----2---------0-||
|-4-------4-------|-4-------4-------|-0h2-----2-------|-2-------2---0---||
|-----------------|-----------------|-----------------|-----------------||
|-----------------|-----------------|-----------------|-----------------||


VERSE:

||------------------|-----------------|-----------------|-----------------|
||------------------|---------------0-|-------0---------|-----------0-----|
||*-----------------|-----0-----0-----|---0-------0---0-|-----0---------0-|
||*-----0---------0-|-----5-------5---|-----5-------5---|-----0-------0---|
||--------------3---|-----3-----------|-----------------|-----3-----------|
||--0-------0-------|-0-------0-------|-0-------0-------|-0-------0-------|
          I know..

|-----------------|-----------------|-----------------|-----------------|
|-----------------|---------------0-|-------0---------|-----------0-----|
|-----------------|-----0-----0-----|---0-------0---0-|-----0---------0-|
|-----0---------0-|-----5-------5---|-----5-------5---|-----0-------0---|
|-------------3---|-----3-----------|-----------------|-----3-----------|
|-0-------0-------|-0-------0-------|-0-------0-------|-0-------0-------|
       For more..


|-3---------3---5-|-3---------3-----|-1---------3p1---|---1-------1-----|
|-------0---------|---0---5-------0-|-------0-------0-|-------0-------0-|
|-----4-------4---|-----4-------4---|-----2-------2---|-----2-------2---|
|-0h4-----4-------|-4-------4-------|-0h2-----2-------|-2-------2-------|
|-----------------|-----------------|-----------------|-----------------|
|-----------------|-----------------|-----------------|-----------------|
  Rowing...


|-3---------3-----|---3-------3-----|-1---------1-----|-----1------------||
|-------0-------0-|-------0-------0-|-------0-------0-|-----0------------||
|-----4-------4---|-----4-------4---|-----2-------2---|-----2-----2---0-*||
|-0h4-----4-------|-4-------4-------|-0h2-----2-------|-2-------2---0---*||
|-----------------|-----------------|-----------------|------------------||
|-----------------|-----------------|-----------------|------------------||
  Rowing ..


ENDING:
                >
||-------3p0h3---3-|-------5p3-----1-|-------1---0-1---|---1---0-1-------|
||-----------0-----|---0-------0-----|-------0-------0-|-----------0---0-|
||-----4-------4---|-----4-------4---|-----2-------2---|-----2-------2---|
||-0h4-----4-------|-4-------4-------|-0h2-----2-------|-2-------2-------|
||-----------------|-----------------|-----------------|-----------------|
||-----------------|-----------------|-----------------|-----------------|


|----0-3---3-------|---5p3-------3---|---1---0-1-----1-|---1---0-1-------|
|--------0---0---0-|-------0---5---0-|-----------0---0-|-----------0---0-|
|------4-------4---|-----4-------4---|-----2-------2---|-----2-------2---|
|-/4-------4-------|-4-------4-------|-2-------2-------|-2-------2-------|
|------------------|-----------------|-----------------|-----------------|
|------------------|-----------------|-----------------|-----------------|


|---0h3-3-3-------|---0h3-3-3-------|---1---0-1-----1-|---1---0-1-----1-|
|-------0-------0-|-------0-------0-|-----------0---0-|-----------0---0-|
|-----4-------4---|-----4-------4---|-----2-------2---|-----2-------2---|
|-4-------4-------|-4-------4-------|-2-------2-------|-2-------2-------|
|-----------------|-----------------|-----------------|-----------------|
|-----------------|-----------------|-----------------|-----------------|


|---1---0-1-----1-|---1---0-1-----1-|---1---0-1-----1-|---1---0-1-------|
|-----------0-----|-----------0-----|-----------0-----|-----------0---0-|
|-----2-------2---|-----2-------2---|-----2-------2---|-----2-------2---|
|-2-------2-------|-2-------2-------|-2-------2-------|-2-------2-------|
|-----------------|-----------------|-----------------|-----------------|
|-----------------|-----------------|-----------------|-----------------|
                    ritardando...........................................

|----------------|---------------||
|----------------|---------------||
|----------------|---------------|| Fine.
|----------------|---------------||
|----------------|---------------||
|-0--------------|---------------||

Other versions of Back Down The River

Back down the riverChords

Almost there ...

Sign in to get your own page with links to favourite songs and more. You are just one click away...

Login with Facebook Login with Google