Log in

One click and you are in

Login with Facebook Login with Google

Why sign up and log in

Guitar Tabs Explorer
Melanie Martinez bass tabs for The bakery

Bass tabs

Tuning: Standard (E A D G)

♫ Intro:

G|--9-8-6---------9-8-6---8---9-8-6-------------------|
D|--------9-8-6---------9-----------9-8-6-------------|
A|--------------4-------------------------4-----------|
E|-4-------------------------4------------------------|
G|-9-8-6--12-------------------------------------|
D|-------9---------------------------------------|
A|-----------------------------------------------|
E|-----------------------------------------------|


♫ Verse 1:
G|--9-8-6---------9-8-6---8---9-8-6-------------------|
D|--------9-8-6---------9-----------9-8-6-------------|
A|--------------4-------------------------4-----------|
E|-4-------------------------4------------------------|

G|-9-8-6--12-------------------------------------|
D|-------9---------------------------------------|
A|-----------------------------------------------|
E|-----------------------------------------------|



♫ Chorus:
G|--9-8-6---------9-8-6---8---9-8-6-------------------|
D|--------9-8-6---------9-----------9-8-6-------------|
A|--------------4-------------------------4-----------|
E|-4-------------------------4------------------------|

G|-9-8-6--12-------------------------------------|
D|-------9---------------------------------------|
A|-----------------------------------------------|
E|-----------------------------------------------|

Verse 2:
G|--9-8-6---------9-8-6---8---9-8-6-------------------|
D|--------9-8-6---------9-----------9-8-6-------------|
A|--------------4-------------------------4-----------|
E|-4-------------------------4------------------------|

G|-9-8-6--12-------------------------------------|
D|-------9---------------------------------------|
A|-----------------------------------------------|
E|-----------------------------------------------|


♫ Chorus:
G|--9-8-6---------9-8-6---8---9-8-6-------------------|
D|--------9-8-6---------9-----------9-8-6-------------|
A|--------------4-------------------------4-----------|
E|-4-------------------------4------------------------|

G|-9-8-6--12-------------------------------------|
D|-------9---------------------------------------|
A|-----------------------------------------------|
E|-----------------------------------------------|


♫ Bridge:

G|--9-8-6---------9-8-6---8---9-8-6-------------------|
D|--------9-8-6---------9-----------9-8-6-------------|
A|--------------4-------------------------4-----------|
E|-4-------------------------4------------------------|

G|-9-8-6--12-------------------------------------|
D|-------9---------------------------------------|
A|-----------------------------------------------|
E|-----------------------------------------------|


♫ Chorus:
G|--9-8-6---------9-8-6---8---9-8-6-------------------|
D|--------9-8-6---------9-----------9-8-6-------------|
A|--------------4-------------------------4-----------|
E|-4-------------------------4------------------------|

G|-9-8-6--12-------------------------------------|
D|-------9---------------------------------------|
A|-----------------------------------------------|
E|-----------------------------------------------|


♫ Outro:
G|--9-8-6---------9-8-6---8---9-8-6-------------------|
D|--------9-8-6---------9-----------9-8-6-------------|
A|--------------4-------------------------4-----------|
E|-4-------------------------4------------------------|

G|-9-8-6--12-------------------------------------|
D|-------9---------------------------------------|
A|-----------------------------------------------|
E|-----------------------------------------------|

Almost there ...

Sign in to get your own page with links to favourite songs and more. You are just one click away...

Login with Facebook Login with Google