Log in

One click and you are in

Login with Facebook Login with Google

Why sign up and log in

Guitar Tabs Explorer
Melanie Martinez bass tabs for Cry baby

Bass tabs

Tuning: EADG

| / slide up
| \ slide down
| h hammer-on
| p pull-off
| ~ vibrato
| + harmonic
| x Mute note

Verse ? 00.15 ? 00.35

G|---------------------------------------------------------------------------|
D|---------------------------------------------------------------------------|
A|-------2x-----2x---------2x----------2x------------------------------------|
E|-0x----------------0x----------5x------------------------------------------| x2


Pre-Chorus ? 00.35 ? 00.55

G|---------------------------------------------------------------------------|
D|-------------------------------3-------------------------------------------|
A|----------------3x---3~-- 3x-2---2---------------2-(2-2-2-2-2-2-2)---------|
E|-0~---0x-5----5--------------------0-----0--3/5----------------------------| x2


Chorus ? 00.55 ? 01.16

G|---------------------------------------------------------------------------|
D|---------------------------------------------------------------------------|
A|-3------3---3-3--------------3---5---5-5-5-5-5-5--------4h5h4--------------|
E|-----------------0-----0-0-----0-----------------5---5--------5h4----------| x2

Verse ? 01.26 ? 01.46

G|---------------------------------------------------------------------------|
D|---------------------------------------------------------------------------|
A|-------2x-----2x---------2x----------2x------------------------------------|
E|-0x----------------0x----------5x------------------------------------------| x2


Pre-Chorus ? 01.46 ? 02.06

G|---------------------------------------------------------------------------|
D|-------------------------------3-------------------------------------------|
A|----------------3x---3~-- 3x-2---2---------------2-(2-2-2-2-2-2-2)---------|
E|-0~---0x-5----5--------------------0-----0--3/5----------------------------| x2


Chorus ? 02.06 ? 02.26

G|---------------------------------------------------------------------------|
D|---------------------------------------------------------------------------|
A|-3------3---3-3--------------3---5---5-5-5-5-5-5--------4h5h4--------------|
E|-----------------0-----0-0-----0-----------------5---5--------5h4----------| x3

Rest for Bridge and first two bars of Chorus


Chorus ? 03.17 ? End.

G|---------------------------------------------------------------------------|
D|---------------------------------------------------------------------------|
A|-3------3---3-3--------------3---5---5-5-5-5-5-5--------4h5h4--------------|
E|-----------------0-----0-0-----0-----------------5---5--------5h4----------| x2

Other versions of Cry Baby

Cry baby albumBass tabs

Almost there ...

Sign in to get your own page with links to favourite songs and more. You are just one click away...

Login with Facebook Login with Google