Log in

One click and you are in

Login with Facebook Login with Google

Why sign up and log in

Guitar Tabs Explorer
Martha And The Vandellas bass tabs for Dancing in the street

Dancing In The Street bass tab by Martha And The Vandellas

Martha And The Vandellas bass tabs for Dancing in the street

Bass tabs

Dancing In The Street.btab
Martha&The Vandellas
Trannscribed by Poppamies

Tuning : E A D G 	Time Signature: 4/4

 tempo 124    |    |    |    |    |    |
|--------------------------------|--------------------------------|
|--------------------------------|--------------------------------|
|----------------------------7---|7-------7---7---7---7-------7---|
|--------------------------------|--------------------------------|

 |    |    |    |    |    |    |    |
|--------------------------------|--------------------------------|
|--------------------------------|--------------------------------|
|7-------7---7---7---7-------7---|7-------7---7---7---7-------7---|
|--------------------------------|--------------------------------|

 |    |    |    |    Callin' out a- |    |
|--------------------------------|--------------------------------|
|--------------------------------|--------------------------------|
|7-------7---7---7---7-------7---|7-------7---7---7---7-------7---|
|--------------------------------|--------------------------------|

 round the world...   |    |    |    |    |
|--------------------------------|--------------------------------|
|--------------------------------|--------------------------------|
|7-------7---7---7---7-------7---|7-------7---7---7---7-------7---|
|--------------------------------|--------------------------------|

 |    |    |    |    Summer's|here and the  |
|--------------------------------|--------------------------------|
|--------------------------------|--------------------------------|
|7-------7---7---7---7-------7---|7-------7---7---7---7-------7---|
|--------------------------------|--------------------------------|

 time is right for    |    dancin' in the streets |
|--------------------------------|--------------------------------|
|--------------------------------|--------------------------------|
|7-------7---7---7---7-------7---|7-------7---7---7---7-------7---|
|--------------------------------|--------------------------------|

 |    |    |    |    |    |    |    |
|--------------------------------|--------------------------------|
|--------------------------------|--------------------------------|
|7-------7---7---7---7-------7---|7-------7---7---7---7-------7---|
|--------------------------------|--------------------------------|

 |    |    |    |    |    |    |    |
|--------------------------------|--------------------------------|
|--------------------------------|--------------------------------|
|7-------7---7---7---7-------7---|7-------7---7---7---7-------7---|
|--------------------------------|--------------------------------|

 |    |    |    |    |    |    |    |
|--------------------------------|--------------------------------|
|--------------------------------|--------------------------------|
|7-------7---7---7---7-------7---|7-------7---7---7---7-------7---|
|--------------------------------|--------------------------------|

 All we need is |    |    music, sweet music   |
|--------------------------------|--------------------------------|
|----------------------------7---|7---------------7---7-------7---|
|7-------7---7---7---7-----------|--------------------------------|
|--------------------------------|--------------------------------|

 |    |    |    |    |    |    |    |
|--------------------------------|--------------------------------|
|7-----------7---7---7-------7---|7---------------7---7-------7---|
|--------------------------------|--------------------------------|
|--------------------------------|--------------------------------|

 |    |    |    |    |    |    |    |
|--------------------------------|--------------------------------|
|7---------------7---7-----------|--------------------------------|
|----------------------------7---|7-------7---7---7---7-------7---|
|--------------------------------|--------------------------------|

 |    |    |    |    dancin' in the streets |
|--------------------------------|--------------------------------|
|--------------------------------|--------------------------------|
|7-------7---7---7---7-------7---|7-------7---7---7---7-------7---|
|--------------------------------|--------------------------------|

 |    |    |    Oh -   it doesn't matter what you wear
|--------------------------------|--------------------------------|
|----------------------------5---|6---------------6---6-------6---|
|7-------7---7---7---7-----------|--------------------------------|
|--------------------------------|--------------------------------|

 |    |    |    |    |    |    |    |
|--------------------------------|--------------------------------|
|6-------6---6---6---6-----------|--------------------------------|
|----------------------------4---|4-------4---4---4---4-------4---|
|--------------------------------|--------------------------------|

 |    |    |    |    |    |    |    |
|--------------------------------|--------------------------------|
|----------------------------4---|4-------4---4---4---4-------4---|
|4-------4---4---4---4-----------|--------------------------------|
|--------------------------------|--------------------------------|

 |    |    |    |    |    |    |    |
|--------------------------------|--------------------------------|
|4-------4---4---4---4-----------|--------------------------------|
|--------------------------------|--------------------------------|
|----------------------------7---|7-------7---7---7---7-------7---|

 |    |    |    |    dancin' in the streets |
|--------------------------------|--------------------------------|
|--------------------------------|--------------------------------|
|--------------------------------|7-------7---7---7---7-------7---|
|7-------7---7---7---7-------7---|--------------------------------|

 |    |    |    |    |    |    |    |
|--------------------------------|--------------------------------|
|--------------------------------|--------------------------------|
|7-------7---7---7---7-------7---|7-------7---7---7---7-------7---|
|--------------------------------|--------------------------------|

 | and so|on... |    |
|--------------------------------|
|--------------------------------|
|--------------------------------|
|--------------------------------|



=====
Jan Bjorklund, Finland

Almost there ...

Sign in to get your own page with links to favourite songs and more. You are just one click away...

Login with Facebook Login with Google