Log in

One click and you are in

Login with Facebook Login with Google

Why sign up and log in

Guitar Tabs Explorer
The Mars Volta bass tabs for Teflon

Bass tabs

Teflon
The Mars Volta
Octahedron (2009)
Bassist: Juan Alderete

The chorus has very minute variations by Juan but they don't vary from the notes that
tabbed out. This should be about 93% on.
Intro/Verse:
(0:10)

 Variation 1:
G|---------------------------|
D|-------------------------3-|
A|------------0-3-5-6---6----|
E|-----(3)-------------------|

 Variation 2:
G|-----------------------------|
D|-------------------------3-6-|
A|------------0-3-5-6----------|
E|-----(3)---------------------|

 Variation 3:
G|-----------------------------|
D|-------------------------6-3-|
A|------------0-3-5-6----------|
E|-----(3)---------------------|

Juan plays variation 2 before the chorus.


Chorus:
(0:50)

G|----------------------------------------------------|
D|----------------------------------------------------|
A|--3-3-0-3-0-3-5-5-0-5-3-5-6-6-0-6-5-6-5-5-0-5h6p5-6-|
E|----------------------------------------------------|

G|-------------------------------------------------|
D|-------------------------------------------------|
A|--3-3-0-3-0-3-5-5-0-5-3-5-6-6-0-6-5-6-8-8-8-8-8--|
E|-------------------------------------------------|

(1:12 "Let the wheels burn, let the wheels burn...")

E|--3-3-3----3-3-3----333----3-3-3----3-3-3----333-|

Timing on this is strange. Listen to pick it up.


Verse 2 (use same variations as verse one):


G|------------------------------------------|
D|--------------------------------------3-6-|
A|--------------------0-3-5-6---3-5-6-------|

Almost there ...

Sign in to get your own page with links to favourite songs and more. You are just one click away...

Login with Facebook Login with Google