Log in

One click and you are in

Login with Facebook Login with Google

Why sign up and log in

Guitar Tabs Explorer
The Mars Volta bass tabs for Roulette dares  haunt of

Roulette Dares Haunt Of bass tab by The Mars Volta

The Mars Volta bass tabs for Roulette dares  haunt of

Bass tabs

// Slide
~Let ring
H Hammer on
P Pull off

edited by: Daniel Gaviria
Note: This isn’t the entire tab, just half of it. Mainly the most fun parts to play.

Intro pt.1:	{0:16}
 1  2  3  -1  2  3  -1  2  3  -1  2  3  |
G|------------|------------|------------|------------|
D|----------5-|5-----0-2-0-|----------5-|5---0-0-2---|
A|0-0-0-3-3---|------------|0-0-0-3-3---|------------|
E|------------|------------|------------|------------|

 1  2  3  -1  2  3  -1  2  3  -1  2  3  |
G|------------|------------|4~----------|------------|
D|----------3//5-5-5-------|------------|------------|
A|------------|------5-5-5-|------------|------------|
E|1-1-1-1-1---|------------|------------|------------|


Verse:		{0:40}
 1  2  3  -1  2  3  -1  2  3  -1  2  3  |
G|------------|------------|------------|------------|
D|----------5-|7~------5---|----------5-|7---5-------|
A|--------7---|----------7-|--------7---|--------7---|
E|5~----------|------------|5~----------|------------|

 1  2  3  -1  2  3  -1  2  3  -1  2  3  |
G|------------|------------|------------|------------|
D|------------|----5-------|------------|------------|
A|5~----------|57------7---|3-3---3---3-|3-----------|
E|------------|------------|------------|------------|
(Flea puts in a different fill basically every time when he plays the verse, ex:)
	 1  2  3  -1  2  3  -1  2  3  -1  2  3  |
	G|------------|------------|------------|------------|
	D|----------5-|7~------5---|----------5-|7---5-------|
	A|--------7---|----------7-|--------7---|--------7---|
	E|5~----------|------------|5~----------|------------|

	 1  2  3  -1  2  3  -1  2  3  -1  2  3  |
	G|------------|------------|------------|------------|
	D|------------|----5-------|------------|------------|
	A|5~----------|57------7---|3~---------232-----------|
	E|------------|------------|------------|----3---0---|


Chorus pt1:		{1:24}
 1  2  3  -1  2  3  -1  2  3  -1  2  3  |
G|------------|------------|------------|------------|
D|------------|------------|------------|------------|
A|5~----------|----5---7---|0-----------|------------|
E|------------|------------|------------|----5~//7---|

 1  2  3  -1  2  3  -1  2  3  -1  2  3  |
G|------------|------------|------------|------------|
D|------------|------------|------------|------------|
A|3~3---3---3-|5~5---5---5-|5~5---5---5-|5~5---5---5-|
E|------------|------------|------------|------------|


Chorus pt2: ‘it’s because… this is’
{1:50}
 1  2  3  -1  2  3  -1  2  3  -1  2  3  |
G|------------|------------|------------|------------|
D|------------|------------|------------|------------|
A|5~----------|------3-5-3-|------------|----0---2---|
E|------------|------------|5~----------|------------|

 1  2  3  -1  2  3  -1  2  3  -1  2  3  |
G|------------|------------|------------|------------|
D|------------|------------|------------|------------|
A|------------|------------|0~----0---0-|0-----------|
E|1~~---1---1-|4~~---4---4-|------------|------------|

 1  2  3  -1  2  3  -1  2  3  -1  2  3  |
G|------------|------------|------------|------------|
D|----------5-|5-----0-2-0-|------------|------------|
A|0-0-0-3-3---|------------|------------|3---5---0---|
E|------------|------------|------------|------------|

 1  2  3  -1  2  3  -1  2  3  -1  2  3  |
G|------------|------------|------------|------------|
D|----------5-|5---0-0-2---|------------|------------|
A|0-0-0-3-3---|------------|------------|3---5---0---|
E|------------|------------|------------|------------|

 1  2  3  -1  2  3  -1  2  3  -1  2  3  |
G|------------|------------|------------|------------|
D|----------5-|5-----0-2-0-|------------|------------|
A|0-0-0-3-3---|------------|------------|3---5---0---|
E|------------|------------|------------|------------|

 1  2  3  -1  2  3  -1  2  3  -1  2  3  |
G|------------|------------|------------|------------|
D|----------5-|5---0-0-2---|------------|------------|
A|0-0-0-3-3---|------------|------------|------------|
E|------------|------------|------------|------------|


{2:52}
G|-------------------------------
D|-------------------------------
A|-------9-----------9----------
E|--7-9----9---7-9-----9-------



{3:00}
G|-----------------------------------------------------------------------------
D|-----------------------------------------------------------------------------
A|--2~22//7~77-0~00-3-5----0~00-----------5-7-5-------------------------------
E|------------------------------------------------5//7-0-----------------------


 1  2  3  -1  2  3  -1  2  3  -1  2  3  |
G|------------|------------|------------|------------|
D|----------5-|5-----0-2-0-|------------|------------|
A|0-0-0-3-3---|------------|------------|3---5---0---|
E|------------|------------|------------|------------|


3:57
G|------
D|------
A|------
E|--3-5

Almost there ...

Sign in to get your own page with links to favourite songs and more. You are just one click away...

Login with Facebook Login with Google