Log in

One click and you are in

Login with Facebook Login with Google

Why sign up and log in

Guitar Tabs Explorer
The Mars Volta tabs for Inertiatic esp

Guitar tabs

The Mars Volta

Inertiatic ESP

Tabbed by: Momo

E-mail: mijo_niam_niam@yahoo.com.mx

Standard tuning. This is one difficult song to tabbed but I did my best
work.

The solo is kind of difficult, ^Ñcause of the timing and the effects.
However, you may play along the E, B, A chord diagramG+G strings. I came up with some
similar notes though is not right. Is the same for the end of the song
but you may use an expression pedal. Any comments or suggestions please
send it to my mail:

 mijo_niam_niam@yahoo.com.mx



Intro; very fast picking

w/dist


A chord diagramE MajorE |---------------------------------------------------------|

A chord diagramBB |---------------------------------------------------------|

A chord diagramG+G |--11----11----11---11----11------------------------------|

A chord diagramD MajorD |--9-----9-----9-----9----9-------------------------------|

A chord diagramA augmentedA |--x-----x-----x-----x----x-------------------------------|

A chord diagramE MajorE |--7-----7-----7-----7----7-------------------------------|



Chorus:  (I´m lost)


A chord diagramE MajorE |---------------------------------------------------------|

A chord diagramBB |---------------------------------------------------------|

A chord diagramG+G |---9----9------7----7-----11-----11----11------7---------|

A chord diagramD MajorD |---9--9---9----7--7---7---11--11-------9----9----9-------|

A chord diagramA augmentedA |---7-----------5----------9------------x-----------------|

A chord diagramE MajorE |---------------------------------------7-----------------|





Verse;


A chord diagramE MajorE
|-----------------------------------------------------------------------|

A chord diagramBB
|-----------------------------------------------------------------------|

A chord diagramG+G
|----------------------------------------------------11-11-11--11--11---|

A chord diagramD MajorD
|----------------------------------------------------9--9--9---9---9----|

A chord diagramA augmentedA
|-7-7-7-7x7-7-7-7--5-5-5-5x5-5-5-5--9-9-9-9x9-9-9-9--x--x--x---x---x----|

A chord diagramE MajorE
|----------------------------------------------------7--7--7---7---7----|





A chord diagramE MajorE
|-----------------------------------------------------------------------|

A chord diagramBB
|-----------------------------------------------------------------------|

A chord diagramG+G
|--------------------------------------------------------11------7------|

A chord diagramD MajorD
|--------------------------------------------------------9----9-----9---|

A chord diagramA augmentedA
|-7-7-7-7x7-7-7-7---5-5-5-5x5-5-5-5---9-9-9-9x9-9-9-9----x--------------|

A chord diagramE MajorE
|--------------------------------------------------------7--------------|





Solo: (the version I came up with^Å)


A chord diagramE MajorE
|---------------------------/14-----------------------------------------|

A chord diagramBB
|-------------------------------------/15-----12--------9---0---7*------|

A chord diagramG+G |---11- 11-----
w/delay-----------10-------9--------7-------------------|

A chord diagramD MajorD
|-----------------------------------------------------------------------|

A chord diagramA augmentedA
|-----------------------------------------------------------------------|

A chord diagramE MajorE
|-----------------------------------------------------------------------|


repeat and add some notes at the end (* is an artificial harmonic)


A chord diagramE MajorE
|-----------------------------------------------------------------------|

A chord diagramBB
|-----------------------------------------------------------------------|

A chord diagramG+G
|-----------------------------------------------------------------------|

A chord diagramD MajorD
|------------------------------7h9999-7h9999-7h9999-7h9999-9h12-12-12-12|

A chord diagramA augmentedA
|-0h2222-0h2222-0h2222-0h2222-------------------------------------------|

A chord diagramE MajorE
|-----------------------------------------------------------------------|


A chord diagramE MajorE
|-----------------------------------------------------------------------|

A chord diagramBB
|-----------------------------------------------------------------------|

A chord diagramG+G
|-----------------------------------------------------------------------|

A chord diagramD MajorD
|-9h12-12-12-12-9h12-12-12-12-9h12-12-12-12-----------------------------|

A chord diagramA augmentedA
|-------------------------------------------7h9999-7h9999-7h9999-7h9999-|

A chord diagramE MajorE
|-----------------------------------------------------------------------|


repeat


After solo;


A chord diagramE MajorE
|-----------------------------------------------------------------------|

A chord diagramBB
|------------------10--10-----------------------------------------------|

A chord diagramG+G
|---7--7----4--4---11--11-----11----------7-----------------------------|

A chord diagramD MajorD
|---x--x----x--x----x---x------9------9-------9-------------------------|

A chord diagramA augmentedA
|---7--7----5--5----9---9------x----------------------------------------|

A chord diagramE MajorE
|------------------------------7----------------------------------------|


A chord diagramE MajorE
|-----------------------------------------------------------------------|

A chord diagramBB
|-----------------------------------------------------------------------|

A chord diagramG+G
|-----------------------------------------------------------------------|

A chord diagramD MajorD
|---------7--7--7--7--7-------------------------------------------------|

A chord diagramA augmentedA
|---7-----5--5--5--5--5-----4--5--4--2-----repeat-----------------------|

A chord diagramE MajorE
|-----------------------------------------------------------------------|



________________________________________________________________________________

Almost there ...

Sign in to get your own page with links to favourite songs and more. You are just one click away...

Login with Facebook Login with Google