Log in

One click and you are in

Login with Facebook Login with Google

Why sign up and log in

Guitar Tabs Explorer
The Mars Volta bass tabs for Drunkship of lanterns

Drunkship Of Lanterns bass tab by The Mars Volta

The Mars Volta bass tabs for Drunkship of lanterns

Bass tabs with lyrics

The Mars Volta
Drunkship of Lanterns
tabbed by rob saunders


edited by: Daniel Gaviria

Intro Riff:
 1  2  3  4  -1  2  3  4  |
g|----------------|----------------|
d|----------------|----------------|
a|------3-------3-|------3----5-55-|
e|5--5-5--5--5-5--|5--5-5--5-------|


Verse Riff:
 1  2  3  4  -1  2  3  4  |
g|----------------|----------------|
d|----------------|----------------|
a|------7-------7-|------7---------|
e|5--5-5--5--5-5--|5--5-5--5--3-33-|

then:
 1  2  3  4  -1  2  3  4  |
g|----------------|----------------|
d|----------------|----------------|
a|-------8--------|----------------|
e|5--5------------|0--0---8--------|


Chorus:
 1 2 3 -1 2 3 -1 2 3 -1 2 3 |
g|---------|---------|---------|---------|
d|10-12-12-|10-12-12-|10-12-12-|13-13-13-| x2
a|---------|---------|---------|---------|
e|---------|---------|---------|---------|

 1  2  3  4  -1  2  3  4  |
g|----------------|----------------|
d|----------------|----------------|	x2
a|------3-------3-|------3----5-55-|
e|5--5-5--5--5-5--|5--5-5--5-------|

 1 2 3 -1 2 3 -1 2 3 -1 2 3 |
g|---------|---------|---------|---------|
d|10-12-12-|10-12-12-|10-12-12-|13-13-13-| x2
a|---------|---------|---------|---------|
e|---------|---------|---------|---------|


Verse Riff:x7
then
g|---------------|
d|---------------|
a|-----8---------|
e|-5-5----0-0-8--|


Chorus:
 1 2 3 -1 2 3 -1 2 3 -1 2 3 |
g|---------|---------|---------|---------|
d|10-12-12-|10-12-12-|10-12-12-|13-13-13-| x2
a|---------|---------|---------|---------|
e|---------|---------|---------|---------|

 1  2  3  4  -1  2  3  4  |
g|----------------|----------------|
d|----------------|----------------|	x2
a|------3-------3-|------3----5-55-|
e|5--5-5--5--5-5--|5--5-5--5-------|

 1 2 3 -1 2 3 -1 2 3 -1 2 3 |
g|---------|---------|---------|---------|
d|10-12-12-|10-12-12-|10-12-12-|13-13-13-| x2
a|---------|---------|---------|---------|
e|---------|---------|---------|---------|

 1  2  3  4  -1  2  3  4  |
g|----------------|----------------|
d|----------------|----------------|	x2
a|------3-------3-|------3----5-55-|
e|5--5-5--5--5-5--|5--5-5--5-------|

 1 2 3 -1 2 3 -1 2 3 -1 2 3 |
g|---------|---------|---------|---------|
d|10-12-12-|10-12-12-|10-12-12-|13-13-13-| x2
a|---------|---------|---------|---------|
e|---------|---------|---------|---------|


Fast Breakdown part:	{1:51}
  -1  2  3  4  -
g|-|----------------|
d|-|----------------|
a|-|----------------|	x4
e|3h5-3h55-55---5---|

 1  2  3  4  |
g|----------------|
d|----------------|
a|----------------|
e|5--5---5--------|


Bridge Part:	{2:04}
 1  2  3  4  -1  2  3  4  |1  2  3  4  -1  2  3  4  |
g|----------------|----------------|----------------|----------------|
d|----------------|----------------|----------------|----------------|
a|----------------|----------------|----------------|----------------|	x2
e|2-----2-2-----2-|2-----2-2-----2-|0-0-0-0-0-0-0-0-|0-0-0-0-0-0-0-0-|

 1  2  3  4  -1  2  3  4  |1  2  3  4  -1  2  3  4  |
g|----------------|--------2-------|----------------|----------------|
d|----------------|----------------|----------------|----------------|
a|----------------|----------------|----------------|----------------|
e|2-----2-2-----2-|2-----2---------|0-0-0-0-0-0-0-0-|0-0-0-0-0-0-0-0-|

 1  2  3  4  -1  2  3  4  |1  2  3  4  -1  2  3  4  |
g|----------------|----------------|----------------|----------------|
d|----------------|----------------|----------------|----------------|
a|----------------|----------------|----------------|----------------|
e|2-----2-2-----2-|2---------------|0-0-0-0-0-0-0-0-|0-0-0-0-0-0-0-0-|

 1  2  3  4  -1  2  3  4  -1  2  3  4  -1  2  3  4  |
g|----------11----------------11---------------------------|
d|-----9h11----11--------9h11----11------------------------|
a|-9-9------------9--9-9------------9----------------------|	x2
e|------------------------------------11-11-11-11-11-11-13-|


Intro Riff:x4


Verse Riff: x7
then:
g|---------------|
d|---------------|
a|-----8---------|
e|-5-5----0-0-8--|


Chorus:
 1 2 3 -1 2 3 -1 2 3 -1 2 3 |
g|---------|---------|---------|---------|
d|10-12-12-|10-12-12-|10-12-12-|13-13-13-| x2
a|---------|---------|---------|---------|
e|---------|---------|---------|---------|

 1  2  3  4  -1  2  3  4  |
g|----------------|----------------|
d|----------------|----------------|	x2
a|------3-------3-|------3----5-55-|
e|5--5-5--5--5-5--|5--5-5--5-------|

 1 2 3 -1 2 3 -1 2 3 -1 2 3 |
g|---------|---------|---------|---------|
d|10-12-12-|10-12-12-|10-12-12-|13-13-13-| x2
a|---------|---------|---------|---------|
e|---------|---------|---------|---------|

 1  2  3  4  -1  2  3  4  |
g|----------------|----------------|
d|----------------|----------------|	x2
a|------3-------3-|------3----5-55-|
e|5--5-5--5--5-5--|5--5-5--5-------|

 1 2 3 -1 2 3 -1 2 3 -1 2 3 |
g|---------|---------|---------|---------|
d|10-12-12-|10-12-12-|10-12-12-|13-13-13-| x2
a|---------|---------|---------|---------|
e|---------|---------|---------|---------|


Weird Breakdown:
g|--------------------------------------------|
d|--------------------------------------------|
a|---------5b-6b-9b---------5b---9b---11b-----|
e|-0-----------------0------------------------|
(this isn’t the exact way but its just bending notes on the A-string)


Fast Breakdown part:
  -1  2  3  4  -
g|-|----------------|
d|-|----------------|
a|-|----------------|	x4
e|3h5-3h55-55---5---|

 1  2  3  4  |
g|----------------|
d|----------------|
a|----------------|	x4
e|5--5---5--------|


g|--------------------|
d|--------------------|
a|--------------------|
e|-3h5-3h5-5-5-5-5/12-|
(the slide to the 12 is necessary as it is the guitar,I just like playing it)


play the breakdown parts for the rest of the song, except at end play
E-00-------00-0-0-0-00------00-----00-----00-0-0-0------00----00---00-0-0--


i'm pretty sure on most of this, the wierd breakdown thing isn't to complicated,
all you need to do is slide and bend strings around that 5.
The ending parts (not the techno parts) are all just the fast breakdown parts so
i didn't bother putting them in

Almost there ...

Sign in to get your own page with links to favourite songs and more. You are just one click away...

Login with Facebook Login with Google