Log in

One click and you are in

Login with Facebook Login with Google

Why sign up and log in

Guitar Tabs Explorer
Bruno Mars bass tabs for When i was you man

Bass tabs

When I was your man - Bruno Mars


Tuning: Standard
intro
G|---------------------------------------------------------------------------|
D|---------------------------------------------------------------------------|
A|---------------------------------------------------------------------------|
E|10--9--8--10--9--8--11-----------------------------------------------------|


verse 1
G|---------------------------------------------------------------------------|
D|---------------------------------------------------------------------------|
A|---------------------------------------------------------------------------|
E|4~~~8~~~9~~~---3~~~5~~~8~11~~---4~~~8~~~9~~~---3~~5~~8~~~------------------|


pre chorus 1
G|---------------------------------------------------------------------------|
D|---------------------------------------------------------------------------|
A|---------------------------------------------------------------------------|
E|-11~~4~~~11~~~6~~~8~~~~----------------------------------------------------|


chorus 1
G|---------------------------------------------------------------------------|
D|---------------------------------------------------------------------------|
A|----8~--------8~~-----------8--~~-------------------8~~7~~-----------------|
E|3-3----3~~8~~-----3~~-8~~~-----3~~~4~~~10--------8~~~------8~~~------------|


verse 2
G|---------------------------------------------------------------------------|
D|---------------------------------------------------------------------------|
A|---------------------------------------------------------------------------|
E|4~~~8~~~9~~~---3~~~5~~~8~11~~---4~~~8~~~9~~~---3~~5~~8~~~------------------|


pre chorus 2
G|---------------------------------------------------------------------------|
D|---------------------------------------------------------------------------|
A|---------------------------------------------------------------------------|
E|-11~~4~~~11~~~6~~~8~~~~----------------------------------------------------|


chorus 2
G|---------------------------------------------------------------------------|
D|---------------------------------------------------------------------------|
A|----8~--------8~~-----------8--~~-------------------8~~7~~-----------------|
E|3-3----3~~8~~-----3~~-8~~~-----3~~~4~~~10--------8~~~------8~~~------------|


Bridge
G|---------------------------------------------------------------------------|
D|---------------------------------------------------------------------------|
A|--8~~~---------------------------------------------------------------------|
E|------3~~~8~~~--3~~--4-11----10~~~-9~~~-3-3-3-3-3-3------------------------|


chorus 2
G|---------------------------------------------------------------------------|
D|---------------------------------------------------------------------------|
A|----8~--------8~~-----------8--~~-------------------8~~7~~-----------------|
E|3-3----3~~8~~-----3~~-8~~~-----3~~~4~~~10--------8~~~------8~~~------------|


| /  slide up

Almost there ...

Sign in to get your own page with links to favourite songs and more. You are just one click away...

Login with Facebook Login with Google