Search tabs and chords

Search for song, artist or band

Log in

One click and you are in

Login with Facebook Login with Google

Why sign up and log in

Guitar Tabs Explorer
Bruno Mars bass tabs for Uptown funk

Bass tabs

Legend
/ - Slide Up
\ - Slide Down

Every '-' corresponds to 1/16th note with additional '-'s for padding in each measure.
Listen to the song to understand the timing, it can be tricky.
(0:00) - Intro
G||------------------|------------------|------------------|------------------|
D||------------------|------------------|------------------|------------------|
A||------------------|------------------|------------------|------------------|
D||------------------|------------------|------------------|------------------|

G||------------------|------------------|------------------|------------------|
D||------------------|------------------|------------------|------------------|
A||------------------|------------------|------------------|------------/55\--|
D||------------------|------------------|------------------|------------------|

(0:17) - Verse 1a     "This hit, that ice cold..."
G||------------------|------------------|------------------|------------------|
D||------------------|------------------|------------------|------------------|
A||------------------|------------------|------------------|------------------|
D||------------------|------------------|------------------|------------------|

G||------------------|------------------|------------------|------------------|
D||------------------|------------------|------------------|------------------|
A||------------------|------------------|------------------|------------------|
D||------------------|------------------|------------------|------------/12\--|

(0:33) - Verse 1b     "I'm too hot..."
G||------------------|------------------|------------------|------------------|
D||------------------|25-2----25--2-----|------------------|25-2----25--2-----|
A||-5\------------5--|------5--------5--|-5\------------5--|------5--------5--|
D||------------------|------------------|------------------|------------------|

G||------------------|------------------|------------------|------------------|
D||------------------|25-2----25--2-----|------------------|25-2--------------|
A||-5\------------5--|------5--------5--|-5\------------5--|------5--2---3----|
D||------------------|------------------|------------------|------------------|

(0:50) - Breakdown    "Girls hit ya hallelujah..."
G||------------------|------------------|------------------|------------------|
D||------------------|------------------|------------------|------------------|
A||-5----------------|------------------|------------------|------------------|
E||------------------|------------------|------------------|------------------|

G||------------------|------------------|------------------|------------------|
D||------------------|------------------|------------------|------------------|
A||---5---6---7---8--|-9---10--11--12---|-13--14--15--15---|------------------|
E||------------------|------------------|------------------|/15\--------/12\--|

(1:07) - Chorus
G||------------------|------------------|------------------|-----------777777-|
D||------------------|25-2----25--2-----|------------------|25-2----25--------|
A||-5\------------5--|------5--------5--|-5\------------5--|------5-----------|
D||------------------|------------------|------------------|------------------|

G||------------------|------------------|------------------|-----------777777-|
D||------------------|25-2----25--2-----|------------------|25-2----25--------|
A||-5\------------5--|------5--------5--|-5\------------03-|------5-----------|
D||------------------|------------------|-------03XXXXXX---|------------------|

G||----------/777777\|----------/777777\|----------/777777\|------------------|
D||------------------|------------------|------------------|------------------|
A||------------------|------------------|------------------|------------------|
E||------------------|------------------|------------------|--------/5\-/12\--|

(1:32) - Verse 2a     "Stop, wait a minute..."
G||------------------|------------------|------------------|------------------|
D||------------------|------------------|------------------|------------------|
A||-5----------------|------------------|------------------|------------------|
D||------------------|------------------|------------------|------------------|

G||------------------|------------------|------------------|------------------|
D||------------------|------------------|------------------|------------------|
A||------------------|------------------|------------------|------------------|
D||------------------|------------------|------------------|------------/12\--|

(1:48) - Verse 2b     "I'm too hot..."
G||------------------|------------------|-------4-7--------|------------------|
D||------------------|25-2----25--2-----|------------------|25-2----25--2-----|
A||-5\------------5--|------5--------5--|-5\------------5--|------5--------5--|
D||------------------|------------------|------------------|------------------|

G||------------------|------------------|----------47------|------------------|
D||------------------|25-2----25--2-----|------------------|25-2--------------|
A||-5\------------5--|------5--------5--|-5\------------5--|------5--2---3----|
D||------------------|------------------|------------------|------------------|

(2:05) - Breakdown    "Girls hit ya hallelujah..."
G||------------------|------------------|------------------|------------------|
D||------------------|------------------|------------------|------------------|
A||-5----------------|------------------|------------------|------------------|
E||------------------|------------------|------------------|------------------|

G||------------------|------------------|------------------|------------------|
D||------------------|------------------|------------------|------------------|
A||---5---6---7---8--|-9---10--11--12---|-13--14--15--15---|------------------|
E||------------------|------------------|------------------|/15\--------/12\--|

(2:22) - Chorus
G||------------------|------------------|------------------|-----------777777-|
D||------------------|25-2----25--2-----|------------------|25-2----25--------|
A||-5\------------5--|------5--------5--|-5\------------5--|------5-----------|
D||------------------|------------------|------------------|------------------|

G||------------------|------------------|------------------|-----------777777-|
D||------------------|25-2----25--2-----|------------------|25-2----25--------|
A||-5\------------5--|------5--------5--|-5\------------03-|------5-----------|
D||------------------|------------------|-------03XXXXXX---|------------------|

G||----------/777777\|----------/777777\|----------/777777\|------------------|
D||------------------|------------------|------------------|------------------|
A||------------------|------------------|------------------|------------------|
E||------------------|------------------|------------------|--------/5\-/12\--|

(2:47) - Bridge       "Before we leave..."
G||------------------|------------------|------------------|------------------|
D||-----(softly)-----|25-2----25--2-----|------------------|25-2----25--2-----|
A||-5\------------5--|------5--------5--|-5\------------5--|------5--------5--|
D||------------------|------------------|------------------|------------------|

G||------------------|------------------|------------------|------------------|
D||------------------|25-2----25--2-----|------------------|25-2----25--2-----|
A||-5\------------5--|------5--------5--|-5\------------5--|------5--------5--|
D||------------------|------------------|------------------|------------------|

G||---------7--------|------------------|------------------|------------------|
D||------------------|25-2----25--2-----|------------------|25-2--------------|
A||-5\----/5----025--|------5--------5--|-5\------------5--|------5--2---3----|
D||------------------|------------------|------------------|------------------|

(3:12) - Verse 3      "Dance, jump on it..."
G||------------------|------------------|------------------|------------------|
D||------------------|25-2----25--2-----|------------------|25-2----25--2-----|
A||-5\------------5--|------5--------5--|-5\------------5--|------5--------5--|
D||------------------|------------------|------------------|------------------|

G||-------4-7--------|------------------|-------------5-7--|---75----3--------|
D||------------------|25-2----25--2-----|-----3--5--7------|------3-5-3-------|
A||-5\------------5--|------5--------5--|-5----------------|-------------55---|
D||------------------|------------------|------------------|------------------|

(3:29) - Chorus
G||------------------|------------------|------------------|-----------777777-|
D||------------------|25-2----25--2-----|------------------|25-2----25--------|
A||-5\------------5--|------5--------5--|-5\------------5--|------5-----------|
D||------------------|------------------|------------------|------------------|

G||------------------|------------------|------------------|-----------777777-|
D||------------------|25-2----25--2-----|------------------|25-2----25--------|
A||-5\------------5--|------5--------5--|-5\------------03-|------5-----------|
D||------------------|------------------|-------03XXXXXX---|------------------|

G||----------/777777\|----------/777777\|----------/777777\|------------------|
D||------------------|------------------|------------------|------------------|
A||------------------|------------------|------------------|------------------|
E||------------------|------------------|------------------|--------/5\-/12\--|

(3:54) - Outro        "Uptown funk you up..."
G||------------------|------------------|------------------|------------------|
D||------------------|25-2----25--2-----|------------------|25-2--------3-----|
A||-5\------------5--|------5--------5--|-5\------2-35--5--|------5---35---5--|
D||------------------|------------------|-------XX---------|---------5--------|

G||------------------|------------------|-------------5-7--|-775-4-------3----|
D||------------------|25-2----25--2-----|-----3--5--7------|-------7-3-5--3---|
-||-5\----XXX-----5--|------5--------5--|-5----------------|------------------|
D||------------------|------------------|------------------|------------------|

G||----/7---5-\------|------------------|------------------|/7-7-7-7--75710-7-|
D||------------------|25-2----25--2-----|------------------|---------7--------|
A||-5-------------5--|------5--------5--|-5\------2-35--5--|------------------|
D||------------------|------------------|-------XX---------|------------------|

G||------------------|------------------|-------------5-7--|-7777-7-777/------|
D||------------------|25-2----25--2-----|-----3--5--7------|------------------|
-||-5\------2-35--5--|------5--------5--|-5----------------|-------------5/---|
D||-------XX---------|------------------|------------------|------------------|

Almost there ...

Sign in to get your own page with links to favourite songs and more. You are just one click away...

Login with Facebook Login with Google