Log in

One click and you are in

Login with Facebook Login with Google

Why sign up and log in

Guitar Tabs Explorer
Bruno Mars guitar tabs for Natalie

Guitar tabs

Tuning: Standard (E A D G B E)


Intro:
    o    o                 o      o
e|---------------------------------------------------------------------------|
B|-/3---------------------/3-------------------------------------------------|
G|-/2---------------------/2-------------------------------------------------|
D|--0----------------------0-------------------------------------------------|
A|---------------------------------------------------------------------------|
E|-----x-----x----x----x--------x-----x----x----x----------------------------|

    o    o                 o      o
e|---------------------------------------------------------------------------|
B|-/3---------------------/3-------------------------------------------------|
G|-/2---------------------/2-------------------------------------------------|
D|--0----------------------0-------------------------------------------------|
A|---------------------------------------------------------------------------|
E|-----x-----x----x----x--------x-----x----x----x----------------------------|


Verse 1:

     o                       o   o
e|------------------1---------------------------1----------------------------|
B|------3--3--3--3-----3--3---------3--3--3--3-----3--3----------------------|
G|---------------------------------------------------------------------------|
D|---0-----------------------0---0-------------------------------------------|
A|---------------------------------------------------------------------------|
E|------x--------x-----x------------x--------x-----x-------------------------|

     o                       o   o
e|------------------1---------------------------1--3-/5----------------------|
B|------3--3--3--3-----3--3---------3--3--3--3-------------------------------|
G|---------------------------------------------------------------------------|
D|---0-----------------------0---0-------------------------------------------|
A|---------------------------------------------------------------------------|
E|------x--------x-----x------------x--------x-----x-------------------------|

     o                          o
e|------5---3---3-----3-----3-3----5---3--3-----3----3-3---------------------|
B|------3----------6-----6---------3---------6----6--------------------------|
G|------3--------------------------3-----------------------------------------|
D|---0--------------------------0--------------------------------------------|
A|---------------------------------------------------------------------------|
E|------x-------x-----------x------x------x----------x-----------------------|

     o
e|------3/5--3---1-1h3-----1h3---1h3-----------------------------------------|
B|------3/5--3-----3----3------3------3--/3-/3--/3---------------------------|
G|------3/5--3-----3------------------2--------------------------------------|
D|---------------------------------------------------------------------------|
A|---1-------------1-----------0---------------------------------------------|
E|------x------------------x--------------x--x---x---------------------------|

     o                       o   o
e|------------------1---------------------------1--3-/5----------------------|
B|------3--3--3--3-----3--3---------3--3--3--3-------------------------------|
G|---------------------------------------------------------------------------|
D|---0-----------------------0---0-------------------------------------------|
A|---------------------------------------------------------------------------|
E|------x--------x-----x------------x--------x-----x-------------------------|

     o                       o   o
e|------------------1---------------------------1--3-/5----------------------|
B|------3--3--3--3-----3--3---------3--3--3--3-------------------------------|
G|---------------------------------------------------------------------------|
D|---0-----------------------0---0-------------------------------------------|
A|---------------------------------------------------------------------------|
E|------x--------x-----x------------x--------x-----x-------------------------|

     o                          o
e|------5---3---3-----3-----3-3----5---3--3-----3----3-3---------------------|
B|------3----------6-----6---------3---------6----6--------------------------|
G|------3--------------------------3-----------------------------------------|
D|---0--------------------------0--------------------------------------------|
A|---------------------------------------------------------------------------|
E|------x-------x-----------x------x------x----------x-----------------------|

     o                              o
e|------3/5--3-3p1-1h3--1h3-1h3p1--/10---------------------------------------|
B|------3/5--3---------------------/10---------------------------------------|
G|------3/5--3---------------------/10---------------------------------------|
D|-----------------------------------------x---x-----------------------------|
A|---1-------------1----------------0------x---x-----------------------------|
E|------x------x---------x----x------------x---x-----------------------------|


Chorus:

     o          o              o         o         o        o            o
e|--/5--5---5--------------5---5/6---5------3---------3--------------3--/5-----5-------|
B|--/6--6---6-------6---8------5/6---6------3---6--6----------3-3-6-----/5-----5--8-6--|
G|--/7--------------7-----------------------3---3--5----------------------------------7|
D|---0----------0----------------------------------------------------------------------|
A|-------------------------------------------------3--------3------------------x-------|
E|------------x---------x------5/6---x---6------x--------x--------------/5--5--x-------|

     o          o              o         o         o        o            o
e|--/5--5---5--------------5---5/6---5------3---------3--------------3--/5-----5-------|
B|--/6--6---6-------6---8------5/6---6------3---6--6----------3-3-6-----/5-----5--8-6--|
G|--/7--------------7-----------------------3---3--5----------------------------------7|
D|---0----------0----------------------------------------------------------------------|
A|-------------------------------------------------3--------3------------------x-------|
E|------------x---------x------5/6---x---6------x--------x--------------/5--5--x-------|

     o                         o                  o
e|---------------------------------------------------------------------------|
B|------------6--6--6/8--/10------------6--6--8--8---10----------------------|
G|------7--7--7--7--7/9--/10------7--7--7--7--7--7---10----------------------|
D|------7--7----------------------8--8---------------------------------------|
A|---5-----x------------x---------------------------x------------------------|
E|---------x------------x------6-----x--------------x------------------------|

                o           (strum very fast)
                             watch out for that pretty little thing...
e|---------------------------5--5-5-5-5-5-5-5-5-5----------------------------|
B|----------5---6---/8-------5-----------------------/6----------------------|
G|------5---5---5---/9-------5-----------------------/7----------------------|
D|------5--------------------7-----------------------------------------------|
A|---3--------x----x---------------------------------------------------------|
E|--------x---x----x-----5---------------------------------------------------|

     o          o              o         o         o        o            o
e|--/5--5---5--------------5---5/6---5------3---------3--------------3--/5-----5-------|
B|--/6--6---6-------6---8------5/6---6------3---6--6----------3-3-6-----/5-----5--8-6--|
G|--/7--------------7-----------------------3---3--5----------------------------------7|
D|---0----------0----------------------------------------------------------------------|
A|-------------------------------------------------3--------3------------------x-------|
E|------------x---------x------5/6---x---6------x--------x--------------/5--5--x-------|


Instrumental:

e|---------------------------------------------------------------------------|
B|---------------/10--/10--/10--/10---/10---/10---/10---/10------------------|
G|--/7---5--2----/10--/10--/10--/10---/10---/10---/10---/10------------------|
D|---0-----------------------------------------------------------------------|
A|---------------------------------------------------------------------------|
E|---------------------------------------------------------------------------|

e|---------------------------------------------------------------------------|
B|---------------/10--/10--/10--/10---/10---/10---/10---/10------------------|
G|--/7---5--2----/10--/10--/10--/10---/10---/10---/10---/10------------------|
D|---0-----------------------------------------------------------------------|
A|---------------------------------------------------------------------------|
E|---------------------------------------------------------------------------|


Verse 2:

     o                       o   o
e|------------------1---------------------------1----------------------------|
B|------3--3--3--3-----3--3---------3--3--3--3-----3--3----------------------|
G|---------------------------------------------------------------------------|
D|---0-----------------------0---0-------------------------------------------|
A|---------------------------------------------------------------------------|
E|------x--------x-----x------------x--------x-----x-------------------------|

     o                       o   o
e|------------------1---------------------------1--3-/5----------------------|
B|------3--3--3--3-----3--3---------3--3--3--3-------------------------------|
G|---------------------------------------------------------------------------|
D|---0-----------------------0---0-------------------------------------------|
A|---------------------------------------------------------------------------|
E|------x--------x-----x------------x--------x-----x-------------------------|

     o                          o
e|------5---3---3-----3-----3-3----5---3--3-----3----3-3---------------------|
B|------3----------6-----6---------3---------6----6--------------------------|
G|------3--------------------------3-----------------------------------------|
D|---0--------------------------0--------------------------------------------|
A|---------------------------------------------------------------------------|
E|------x-------x-----------x------x------x----------x-----------------------|

     o
e|------3/5--3---1-1h3-----1h3---1h3-----------------------------------------|
B|------3/5--3-----3----3------3------3--/3-/3--/3---------------------------|
G|------3/5--3-----3------------------2--------------------------------------|
D|---------------------------------------------------------------------------|
A|---1-------------1-----------0---------------------------------------------|
E|------x------------------x--------------x--x---x---------------------------|

     o                       o   o                       o
e|------------------1---------------------------1--3-/5---------1------------|
B|------3--3--3--3-----3--3---------3--3--3--3--------------3------3--3------|
G|---------------------------------------------------------------------------|
D|---0-----------------------0---0-----------------------0-------------------|
A|---------------------------------------------------------------------------|
E|------x--------x-----x------------x--------x-----x----------x-------x------|

     o                       o   o                       o
e|------------------1---------------------------1--3-/5----------------------|
B|------3--3--3--3-----3--3---------3--3--3--3--------------1---3--3--1------|
G|---------------------------------------------------------------------------|
D|---0-----------------------0---0-----------------------0-------------------|
A|---------------------------------------------------------------------------|
E|------x--------x-----x------------x--------x-----x----------x-------x------|

     o                          o
e|------5---3---3-----3-----3-3----5---3--3-----3----3-3---------------------|
B|------3----------6-----6---------3---------6----6--------------------------|
G|------3--------------------------3-----------------------------------------|
D|---0--------------------------0--------------------------------------------|
A|---------------------------------------------------------------------------|
E|------x-------x-----------x------x------x----------x-----------------------|

     o                              o
e|------3/5--3-3p1-1h3--1h3-1h3p1--/10---------------------------------------|
B|------3/5--3---------------------/10---------------------------------------|
G|------3/5--3---------------------/10---------------------------------------|
D|-----------------------------------------x---x-----------------------------|
A|---1-------------1----------------0------x---x-----------------------------|
E|------x------x---------x----x------------x---x-----------------------------|


Chorus:

     o          o              o         o         o        o            o
e|--/5--5---5--------------5---5/6---5------3---------3--------------3--/5-----5-------|
B|--/6--6---6-------6---8------5/6---6------3---6--6----------3-3-6-----/5-----5--8-6--|
G|--/7--------------7-----------------------3---3--5----------------------------------7|
D|---0----------0----------------------------------------------------------------------|
A|-------------------------------------------------3--------3------------------x-------|
E|------------x---------x------5/6---x---6------x--------x--------------/5--5--x-------|

     o          o              o         o         o        o            o
e|--/5--5---5--------------5---5/6---5------3---------3--------------3--/5-----5-------|
B|--/6--6---6-------6---8------5/6---6------3---6--6----------3-3-6-----/5-----5--8-6--|
G|--/7--------------7-----------------------3---3--5----------------------------------7|
D|---0----------0----------------------------------------------------------------------|
A|-------------------------------------------------3--------3------------------x-------|
E|------------x---------x------5/6---x---6------x--------x--------------/5--5--x-------|

     o                         o                  o
e|---------------------------------------------------------------------------|
B|------------6--6--6/8--/10------------6--6--8--8---10----------------------|
G|------7--7--7--7--7/9--/10------7--7--7--7--7--7---10----------------------|
D|------7--7----------------------8--8---------------------------------------|
A|---5-----x------------x---------------------------x------------------------|
E|---------x------------x------6-----x--------------x------------------------|

                o           (strum very fast)
                             watch out for that pretty little thing...
e|---------------------------5--5-5-5-5-5-5-5-5-5----------------------------|
B|----------5---6---/8-------5-----------------------/6----------------------|
G|------5---5---5---/9-------5-----------------------/7----------------------|
D|------5--------------------7-----------------------------------------------|
A|---3--------x----x---------------------------------------------------------|
E|--------x---x----x-----5---------------------------------------------------|

     o          o              o         o         o        o            o
e|--/5--5---5--------------5---5/6---5------3---------3--------------3--/5-----5-------|
B|--/6--6---6-------6---8------5/6---6------3---6--6----------3-3-6-----/5-----5--8-6--|
G|--/7--------------7-----------------------3---3--5----------------------------------7|
D|---0----------0----------------------------------------------------------------------|
A|-------------------------------------------------3--------3------------------x-------|
E|------------x---------x------5/6---x---6------x--------x--------------/5--5--x-------|


Bridge:

       o             o         o                 o
e|--/5-5-------------------/5--5---------------------------------------------|
B|-----6--8----6-----6---------6--8-------6------6---------------------------|
G|----------------------7---------------------------7------------------------|
D|---------------------------------------------------------------------------|
A|---------------------------------------------------------------------------|
E|-----6-----6-x---6----x------6------6---x---6-----x------------------------|

       o             o         o                 o
e|--/5-5--3----3--------3--/5--5--3-------3---------3------------------------|
B|-----3-------------6---------3-----------------6---------------------------|
G|-----3-----------------------3---------------------------------------------|
D|---------------------------------------------------------------------------|
A|---------------------------------------------------------------------------|
E|-----3-----3-x---3----x------3------3---x---3-----x------------------------|

       o             o         o                 o
e|-----5--8----5---------------5--8-------5----------------------------------|
B|--/6-6-------------6-----/6--6-----------------6---------------------------|
G|----------------------7---------------------------7------------------------|
D|---------------------------------------------------------------------------|
A|---------------------------------------------------------------------------|
E|-----6-----6-x---6----x------6------6---x---6-----x------------------------|


Chorus:

     o          o              o         o         o        o            o
e|--/5--5---5--------------5---5/6---5------3---------3--------------3--/5-----5-------|
B|--/6--6---6-------6---8------5/6---6------3---6--6----------3-3-6-----/5-----5--8-6--|
G|--/7--------------7-----------------------3---3--5----------------------------------7|
D|---0----------0----------------------------------------------------------------------|
A|-------------------------------------------------3--------3------------------x-------|
E|------------x---------x------5/6---x---6------x--------x--------------/5--5--x-------|

     o          o              o         o         o        o            o
e|--/5--5---5--------------5---5/6---5------3---------3--------------3--/5-----5-------|
B|--/6--6---6-------6---8------5/6---6------3---6--6----------3-3-6-----/5-----5--8-6--|
G|--/7--------------7-----------------------3---3--5----------------------------------7|
D|---0----------0----------------------------------------------------------------------|
A|-------------------------------------------------3--------3------------------x-------|
E|------------x---------x------5/6---x---6------x--------x--------------/5--5--x-------|

     o                         o                  o
e|---------------------------------------------------------------------------|
B|------------6--6--6/8--/10------------6--6--8--8---10----------------------|
G|------7--7--7--7--7/9--/10------7--7--7--7--7--7---10----------------------|
D|------7--7----------------------8--8---------------------------------------|
A|---5-----x------------x---------------------------x------------------------|
E|---------x------------x------6-----x--------------x------------------------|

                o           (strum very fast)
                             watch out for that pretty little thing...
e|---------------------------5--5-5-5-5-5-5-5-5-5----------------------------|
B|----------5---6---/8-------5-----------------------/6----------------------|
G|------5---5---5---/9-------5-----------------------/7----------------------|
D|------5--------------------7-----------------------------------------------|
A|---3--------x----x---------------------------------------------------------|
E|--------x---x----x-----5---------------------------------------------------|

     o          o              o         o         o        o            o
e|--/5--5---5--------------5---5/6---5------3---------3--------------3--/5-----5-------|
B|--/6--6---6-------6---8------5/6---6------3---6--6----------3-3-6-----/5-----5--8-6--|
G|--/7--------------7-----------------------3---3--5----------------------------------7|
D|---0----------0----------------------------------------------------------------------|
A|-------------------------------------------------3--------3------------------x-------|
E|------------x---------x------5/6---x---6------x--------x--------------/5--5--x-------|


************************************

| x   Dead note
| h   Hammer-on
| p   Pull-off
| /   Slide up
| \   Slide down
| o   Bass thump

************************************

Other versions of Natalie

NatalieChords

Almost there ...

Sign in to get your own page with links to favourite songs and more. You are just one click away...

Login with Facebook Login with Google