Search tabs and chords

Search for song, artist or band

Log in

One click and you are in

Login with Facebook Login with Google

Why sign up and log in

Guitar Tabs Explorer
Bruno Mars bass tabs for Moonshine

Bass tabs

Intro

G|--------------------------------------------------------------------|
D|-------------6/8-8-8-8-8--6-6-6-6-6---------------------------------|
A|--6-6-6-6-6---------------------------------------------------------|
E|--------------------------------------------------------------------|

G|--------------------------------------------------------------------|
D|------------------------------------------------6/8-----------------|
A|---------------------------2/6-6-6-6-6-6-6-6-6----------------------|
E|---6-6-6-6-6-6/2-2-2-2-2-2--------------------------6-6-6-6/4-4-4-4-|

Verse 1

G|----------------------------------------------------------------|
D|---8-----8-8-----8---8------4------4---4------4---4-------------|
A|----------------------------------------------------------------|
E|-6---6-6-6-6-66----6---6/-2---2-2-2--2---2-2---2---2------------|

G|------8------8---8----------------------------------------------|
D|-----------------------6----8---8-------------------------------|
A|-2/6----6-6-6--6---66-------------------------------------------|
E|--------------------------6---6----6/4-4------------------------|

pre chorus

G|------------------------|
D|------------------------|
A|------6-----------------|
E|--6/8----8--6/8---------|

Chorus (listen for timings)

G|-----------------------------------------------------------------|
D|-----8----8-------------8-8----8---------------------------------|
A|-----------------------------------------------------------------|
E|--6----6------6-6-6-6-------6-------6/2--------------------------|

G|-----------------------------------------------------------------|
D|-----4----4-------------4-4----4---------------------------------|
A|-----------------------------------2/6---------------------------|
E|--2----2------2-2-2-2-2-----2------------------------------------|

G|----8-----8--------------8-8-----8-------------------------------|
D|-----------------------------------------8-----8-----------------|
A|--6----6-----6-6-6-6-6-6------6----------------------------------|
E|--------------------------------------6-----6-------6/-4---------|

Pre Verse

G|------------------------|
D|------------------------|
A|------6-----------------|
E|--6/8----8--6/8---------|

Verse 2

G|----------------------------------------------------------------|
D|---8-----8-8-----8---8------4------4---4------4---4-------------|
A|----------------------------------------------------------------|
E|-6---6-6-6-6-66----6---6/-2---2-2-2--2---2-2---2---2------------|

G|------8------8---8----------------------------------------------|
D|-----------------------6----8---8-------------------------------|
A|-2/6----6-6-6--6---66-------------------------------------------|
E|--------------------------6---6----6/4-4------------------------|

pre chorus

G|------------------------|
D|------------------------|
A|------6-----------------|
E|--6/8----8--6/8---------|

Chorus (listen for timings)

G|-----------------------------------------------------------------|
D|-----8----8-------------8-8----8---------------------------------|
A|-----------------------------------------------------------------|
E|--6----6------6-6-6-6-------6-------6/2--------------------------|

G|-----------------------------------------------------------------|
D|-----4----4-------------4-4----4---------------------------------|
A|-----------------------------------2/6---------------------------|
E|--2----2------2-2-2-2-2-----2------------------------------------|

G|----8-----8--------------8-8-----8-------------------------------|
D|-----------------------------------------8-----8-----------------|
A|--6----6-----6-6-6-6-6-6------6----------------------------------|
E|--------------------------------------6-----6-------6/-4-4/0/4R--|

repeat chorus x 2, between repeat play pre chorus

pre chorus

G|------------------------|
D|------------------------|
A|------6-----------------|
E|--6/8----8--6/8---------|

break


G|---2R---4---6R-------------------------9/------------------------|
D|-------------------0h2--4r---h5-/-9r--9--------------------------|
A|-----------------------------------------------------------------|
E|-----------------------------------------------------------------|

G|---2r--4--6r-----------------------------------------------------|
D|--------------3--5--7---6---8---9---11---------------------------|
A|----------------------------------------15/17R-------------------|
E|-----------------------------------------------------------------|

G|-----------------------------------------------------------------|
D|-----------------------------------------------------------------|
A|-----------------------6r---------6------------------------------|
E|----6r----0-2r----6----------6/8-------8--6/8--------------------|


Chorus (listen for timings)

G|-----------------------------------------------------------------|
D|-----8----8-------------8-8----8---------------------------------|
A|-----------------------------------------------------------------|
E|--6----6------6-6-6-6-------6-------6/2--------------------------|

G|-----------------------------------------------------------------|
D|-----4----4-------------4-4----4---------------------------------|
A|-----------------------------------2/6---------------------------|
E|--2----2------2-2-2-2-2-----2------------------------------------|

G|----8-----8--------------8-8-----8-------------------------------|
D|-----------------------------------------8-----8-----------------|
A|--6----6-----6-6-6-6-6-6------6----------------------------------|
E|--------------------------------------6-----6--------------------|

G|------------------------|
D|------------------------|
A|------6-----------------|
E|--6/8----8--6/8---------|



Continue with chorus until fade out
data-matched-content-ui-type="image_card_stacked"

Almost there ...

Sign in to get your own page with links to favourite songs and more. You are just one click away...

Login with Facebook Login with Google