Search tabs and chords

Search for song, artist or band

Log in

One click and you are in

Login with Facebook Login with Google

Why sign up and log in

Guitar Tabs Explorer
Bruno Mars bass tabs for Locked out of heaven

Bass tabs

Tuning: 0


This is song is quite easy to play. Just note that when coming out of
the chorus and back into the verse. you need to count so you come back
into the verse on the "&" of "3".
VERSE
G|--------------------------------------------------------------------------------|
D|--------------------------------------------------------------------------------|
A|-----------3---5-------3h5-3-0-1-------0h1-0------------------------------------|
E|---------------------------------------------1-3---3-3---3-----3-3---3----------|

   1 & 2 & 3 & 4 & 1 & 2 & 3 & 4 & 1 & 2 & 3 & 4 & 1 & 2 & 3 & 4 & 1 & 2 & 3 & 4 &


PRE-CHORUS
G|------------------------------------------------------------------|
D|-------------------------------------5h7-----5h7-----5h7-----5h7--|
A|---------------------------------0-0-----0-0-----0-0-----0-0------|
E|-1-1-1-1-1-1-1-1-1-1-1-1-1-1-1-1----------------------------------|

   1 & 2 & 3 & 4 & 1 & 2 & 3 & 4 & 1 & 2 & 3 & 4 & 1 & 2 & 3 & 4 &

CHORUS
G|------------------------------------------------------------------|
D|------------------------------------------------------------------|
A|------------------------------------------------------------------|
E|-6-6-6-6-6-6-6-6-6-6-6-6-6-6-6-6-3-3-3-3-3-3-3-3-3-3-3-3-3-3-3-3--|

   1 & 2 & 3 & 4 & 1 & 2 & 3 & 4 & 1 & 2 & 3 & 4 & 1 & 2 & 3 & 4 &


G|------------------------------------------------------------------|
D|------------------------------------------------------------------|
A|---------------------------------3-3-3-3-3-3-3-3-3-3-3-3-3-3-3-3--|
E|-1-1-1-1-1-1-1-1-1-1-1-1-1-1-1-1----------------------------------|

   1 & 2 & 3 & 4 & 1 & 2 & 3 & 4 & 1 & 2 & 3 & 4 & 1 & 2 & 3 & 4 &



BRIDGE
Play whole notes using the same chord progression as the chorus.

Submitted by: LiLac

Almost there ...

Sign in to get your own page with links to favourite songs and more. You are just one click away...

Login with Facebook Login with Google