Log in

One click and you are in

Login with Facebook Login with Google

Why sign up and log in

Guitar Tabs Explorer
Bruno Mars guitar chords for Just the way you are ukulele (Ver. 2)

Just The Way You Are Ukulele chords by Bruno Mars (Ver. 2)

Bruno Mars guitar chords for Just the way you are ukulele (Ver. 2)

Guitar chords with lyrics

Tuning: G C E A (G C E A)

Difficulty: Novice

Intro:

A|-7--5-8--7--5-8--7--3--3-5-3-|
E|-----------------------------|
C|-----------------------------|
G|-----------------------------|

Verse 1:

A|---------------------------|
E|-3-3-0-3-3-0---------------|
C|---------------------------|
G|---------------------------|
Oh, her eyes, her eyes

A|-------------0-------------|
E|-3-0-3-3-0-3---0-0---------|
C|---------------------------|
G|---------------------------|
Make the stars look like they're not shinin'

A|---------------------------|
E|-3-3-0-3-3-0---------------|
C|---------------------------|
G|---------------------------|
Her hair, her hair

A|-------------0-------------|
E|-3-0-3-3-0-3---0-0---------|
C|---------------------------|
G|---------------------------|
Falls perfectly without her trying

A|---------------------------|
E|-1-0-1-0-0-----------------|
C|---------------------------|
G|---------------------------|
She's so beautiful

A|---------------------------|
E|-0-0-1-0-1-0-0-------------|
C|---------------------------|
G|---------------------------|
And I tell her every day

A|---------------------------|
E|-3-3-0-3-3-0---------------|
C|---------------------------|
G|---------------------------|
Yeah, I know, I know

A|-------------0-------------|
E|-3-0-3-3-0-3---0-0---------|
C|---------------------------|
G|---------------------------|
When I compliment her she won't believe me

A|---------------------------|
E|-3-3-0-3-3-0---------------|
C|---------------------------|
G|---------------------------|
And it's so, it's so

A|-------------0-------------|
E|-3-0-3-3-0-3---0-0---------|
C|---------------------------|
G|---------------------------|
Sad to think that she don't see what I see

A|---------------------------|
E|-0-1-0-1-0-1-0-3-----------|
C|-----------------0-0-0-2---|
G|---------------------------|
But every time she asks me, "Do I look okay?"

A|---------------------------|
E|-0-0-----------------------|
C|---------------------------|
G|---------------------------|
I say


Chorus:

A|-----3-5-7-----------------|
E|-3-3-----------------------|
C|---------------------------|
G|---------------------------|
When I see your face

A|---3-5-7-5-3-5-3-----------|
E|-3-------------------------|
C|---------------------------|
G|---------------------------|
There's not a thing that I would change

A|-3-3-5-7-5--8-7-3-5-3------|
E|---------------------------|
C|---------------------------|
G|---------------------------|
Cause you're amazing just the way you are

A|---3-5-7-------------------|
E|-3-------------------------|
C|---------------------------|
G|---------------------------|
And when you smile

A|---3-5-7-5-3-3-5-3---------|
E|-3-------------------------|
C|---------------------------|
G|---------------------------|
The whole world stops and stares for a while

A|-3-3-5-7-5--8-7-3-5-3------|
E|---------------------------|
C|---------------------------|
G|---------------------------|
Cause, girl, you're amazing just the way you are



Verse 2:

A|---------------------------|
E|-3-3-0-3-3-0---------------|
C|---------------------------|
G|---------------------------|
Her lips, her lips

A|-------------0-------------|
E|-3-0-3-3-0-3---0-0---------|
C|---------------------------|
G|---------------------------|
I could kiss them all day if she'd let me

A|---------------------------|
E|-3-3-0-3-3-0---------------|
C|---------------------------|
G|---------------------------|
Her laugh, her laugh

A|-------------0-------------|
E|-3-0-3-3-0-3---0-0---------|
C|---------------------------|
G|---------------------------|
She hates but I think it's so sexy

A|---------------------------|
E|-1-0-1-0-0-----------------|
C|---------------------------|
G|---------------------------|
She's so beautiful

A|---------------------------|
E|-0-0-1-0-1-3-0-------------|
C|---------------------------|
G|---------------------------|
And I tell her every day

A|-3-3-2-2-0-0---------------|
E|---------------------------|
C|---------------------------|
G|---------------------------|
Oh you know, you know, you know

A|---------------------------|
E|-3-3-1-0-1-3---------------|
C|-------------0-------------|
G|---------------------------|
I'd never ask you to change

A|-3-3-2-2-0-0---------------|
E|-------------3-3-----------|
C|---------------------------|
G|---------------------------|
If perfect's what you're searching for

A|---------------------------|
E|-1-0-1-3-------------------|
C|---------0-0---------------|
G|---------------------------|
Then just stay the same

A|---------------------0-3-5-|
E|-3-0-3-0-3-0-3-0-3-3-------|
C|---------------------------|
G|---------------------------|
So don't even bother asking if you look okay

A|-3-8-10-7-5-3-5-7----------|
E|---------------------------|
C|---------------------------|
G|---------------------------|
You know I'll say



Chorus:

A|-----3-5-7-----------------|
E|-3-3-----------------------|
C|---------------------------|
G|---------------------------|
When I see your face

A|---3-5-7-5-3-5-3-----------|
E|-3-------------------------|
C|---------------------------|
G|---------------------------|
There's not a thing that I would change

A|-3-3-5-7-5--8-7-3-5-3------|
E|---------------------------|
C|---------------------------|
G|---------------------------|
Cause you're amazing just the way you are

A|---3-5-7-------------------|
E|-3-------------------------|
C|---------------------------|
G|---------------------------|
And when you smile

A|---3-5-7-5-3-3-5-3---------|
E|-3-------------------------|
C|---------------------------|
G|---------------------------|
The whole world stops and stares for a while

A|-3-3-5-7-5--8-7-3-5-3------|
E|---------------------------|
C|---------------------------|
G|---------------------------|
Cause, girl, you're amazing just the way you are



Post-Chorus:

A|-3-5-3-10------------------|
E|---------------------------|
C|---------------------------|
G|---------------------------|
The way you are

A|-3-5-3-10-7----------------|
E|---------------------------|
C|---------------------------|
G|---------------------------|
The way you are

A|-3-3-5-7-5--8-7-3-5-3------|
E|---------------------------|
C|---------------------------|
G|---------------------------|
Girl, you're amazing just the way you are



Chorus:

A|-----3-10-7----------------|
E|-3-3-----------------------|
C|---------------------------|
G|---------------------------|
When I see your face

A|---3-5-7-5-3-5-3-----------|
E|-3-------------------------|
C|---------------------------|
G|---------------------------|
There's not a thing that I would change

A|-3-3-5-7-5--8-7-3-5-3------|
E|---------------------------|
C|---------------------------|
G|---------------------------|
Cause you're amazing just the way you are

A|---3-5-7-------------------|
E|-3-------------------------|
C|---------------------------|
G|---------------------------|
And when you smile

A|---3-5-7-5--3-3-5-3--------|
E|-3-------------------------|
C|---------------------------|
G|---------------------------|
The whole world stops and stares for a while

A|-3-3-5-7-5--8-7-3-5-3------|
E|---------------------------|
C|---------------------------|
G|---------------------------|
Cause, girl, you're amazing just the way you are, yeah

Other versions of Just The Way You Are Ukulele

Just the way you are ukuleleChords

Almost there ...

Sign in to get your own page with links to favourite songs and more. You are just one click away...

Login with Facebook Login with Google