Log in

One click and you are in

Login with Facebook Login with Google

Why sign up and log in

Guitar Tabs Explorer
Bruno Mars guitar tabs for Just the way you are

Intro

-------------------------------------------------------------------------------
			Just the way you are - Bruno Mars
-------------------------------------------------------------------------------
Tabbed by: Christian Abila

Key of A chord diagramFF major
Timing: <4/4>
Capo on 3rd fret

    D/B
    |     |     |     |        |     |     |     |        |     |     |     |
e|--------------------------|--------------------------|--------------------------|
B|--3-----3-----------------|--------------------------|--3-----3-----------------|
G|-----2-----2-----2-----0--|-----0-----2-----2-----0--|-----2-----2-----2-----0--|
D|--0-----------0-----0-----|--4-----4-----0-----0-----|--------------------------|
A|--------------------------|--------------------------|--2-----------2-----2-----|
E|--------------------------|--------------------------|--------------------------|

                              D/G
    |     |     |     |        |     |     |     |        |     |     |     |
e|--------------------------|--------------------------|--------------------------|
B|--------------------------|--3-----3-----------------|--------------------------|
G|-----0-----2-----2-----0--|-----2-----2-----2-----0--|-----0-----2-----2-----0--|
D|--4-----4-----------------|--------------------------|--4-----4-----------------|
A|--------------2-----2-----|--------------------------|--------------------------|
E|--------------------------|--3-----------3-----3-----|--------------3-----3-----|

    A chord diagramD MajorD
    |     |     |     |        |     |     |     |        |     |     |     |
e|--------------------------|--------------------------|--2-----------------------|
B|--3-----3-----------------|--------------------------|--------3-----------------|
G|-----2-----2-----2-----0--|-----0-----2-----2-----0--|-----2-----2-----2-----0--|
D|--0-----------0-----0-----|--4-----4-----0-----0-----|--0-----------0-----0-----|
A|--------------------------|--------------------------|--------------------------|
E|--------------------------|--------------------------|--------------------------|

                              D/B
    |     |     |     |        |     |     |     |        |     |     |     |
e|--------------0-----3-----|--2-----------------------|--------------0-----3-----|
B|--------------------------|--3-----3--3--------------|--------------------------|
G|-----0-----2-----2-----0--|-----2-----2-----2-----0--|-----0-----2-----2-----0--|
D|--4-----4-----------------|--------------------------|--4-----4-----------------|
A|--------------------------|--2-----------2-----2-----|--------------------------|
E|--------------------------|--------------------------|--------------------------|

   A chord diagramD MajorD
    |     |     |     |        |     |     |     |        |     |     |     |
e|--2-----------------------|--------------0-----------|--------------------------|
B|--3-----3--3--------------|--------------------------|--3-----3-----------------|
G|--2--2-----2-----2-----0--|-----0-----2--------2-----|-----2-----2-----2-----0--|
D|--------------------------|--4-----4-----------------|--0-----------0-----0-----|
A|--------------------------|--------------------------|--------------------------|
E|--3-----------3-----3-----|-----------------3-----3--|--------------------------|

    |     |     |     |        |     |     |     |        |     |     |     |
e|--------------------------|--------------------------|--------------------------|
B|--------------------------|--------------------------|--------------------------|
G|-----0-----2-----2-----0--|--------------------------|--------------------------|
D|--4-----4-----0-----0-----|--------------------------|--------------------------|
A|--------------------------|--------------------------|--------------------------|
E|--------------------------|--------------------------|--------------------------|

Other versions of Just The Way You Are

Just the way you areChords
Just the way you are (Ver. 2)Chords
Just the way you are (Ver. 3)Chords
Just the way you are acousticChords
Just the way you are ukuleleChords
Just the way you are ukulele (Ver. 2)Chords
Just the way you areTabs

Almost there ...

Sign in to get your own page with links to favourite songs and more. You are just one click away...

Login with Facebook Login with Google