Search tabs and chords

Search for song, artist or band

Log in

One click and you are in

Login with Facebook Login with Google

Why sign up and log in

Guitar Tabs Explorer
Bruno Mars bass tabs for Finesse

Bass tabs

Drum Intro

Verse
|----------------------------------------------------------------|
|----------------------------------------------------------------|
|--------------------------------------------------------------3-|
|----------------------------------------------------1-3-4-3-4---|
|-2---------------1------------4-6\------------------------------|

|----------------------------------------------------------------|
|----------------------------------------------------------------|
|----------------------------------------------------------------|
|----------------------------------------------------------------|
|-2---------------1------------4-6\------------------------------|

|----------------------------------------------------------------|
|------------------------------------------3---------------------|
|----------4---------------3------------3----------------------3-|
|----1--4------------0--3---------1--4---------------1-3-4-3-4---|
|-2------------0~-1------------4~------------------4-------------|

|----------------------------------------------------------------|
|------------------------------------------3---1-2-3-------------|
|----------4---------------3------------3------------------------|
|----1--4------------0--3---------1--4---------------------------|
|-2------------0~-1------------4~--------------------------------|

Chorus
|----------------------------------------------------------------|
|----------------------------------------------------------------|
|--------------------------------------------------------------3-|
|----------------------------------------------------1-3-4-3-4---|
|-2---------------1------------4-6\------------------------------|

|----------------------------------------------------------------|
|----------------------------------------------------------------|
|----------------------------------------------------------------|
|----------------------------------------------------------------|
|-2---------------1------------4-6\--------------6---------------|

Verse
|----------------------------------------------------------------|
|----------------------------------------------------------------|
|--------------------------------------------------------------3-|
|----------------------------------------------------1-3-4-3-4---|
|-2---------------1------------4-6\------------------------------|

|----------------------------------------------------------------|
|----------------------------------------------------------------|
|----------------------------------------------------------------|
|----------------------------------------------------------------|
|-2---------------1------------4-6\------------------------------|

|----------------------------------------------------------------|
|------------------------------------------3---------------------|
|----------4---------------3------------3----------------------3-|
|----1--4------------0--3---------1--4---------------1-3-4-3-4---|
|-2------------0~-1------------4~------------------4-------------|

|----------------------------------------------------------------|
|------------------------------------------3---1-2-3-------------|
|----------4---------------3------------3------------------------|
|----1--4------------0--3---------1--4---------------------------|
|-2------------0~-1------------4~--------------------------------|

Chorus
|----------------------------------------------------------------|
|----------------------------------------------------------------|
|--------------------------------------------------------------3-|
|----------------------------------------------------1-3-4-3-4---|
|-2---------------1------------4-6\------------------------------|

|----------------------------------------------------------------|
|----------------------------------------------------------------|
|----------------------------------------------------------------|
|----------------------------------------------------------------|
|-2---------------1------------4-6\--------------6---------------|

Bridge
|----------------------------------------------------------------|
|----------------------------------------------------------------|
|----------4-4----------3---3---------8--8-8--8-7-6~-------------|
|-----------------------------------------------------4/6\4~-----|
|-2~---2-------0~-1~-------------6~---------------------------1~-|

|----------------------------------------------------------------|
|----------------------------1h3--------------1-2-3--------------|
|-------4---4---------3---3--------------------------------------|
|--------------------------------1~------------------------------|
|-2~-----------0~-1~--------------------------------1--1----1-1--|

|----------------------------------------------------------------|
|------------------------------------------3---------------------|
|----------4---------------3------------3----------------------3-|
|----1--4------------0--3---------1--4---------------1-3-4-3-4---|
|-2------------0~-1------------4~------------------4-------------|

|----------------------------------------------------------------|
|------------------------------------------3-------3-------------|
|----------4---------------3------------3------------------------|
|----1--4------------0--3---------1--4---------------------------|
|-2------------0~-1------------4~--------------------------------|

Chorus
|----------------------------------------------------------------|
|----------------------------------------------------------------|
|--------------------------------------------------------------3-|
|----------------------------------------------------1-3-4-3-4---|
|-2---------------1------------4-6\------------------------------|

|----------------------------------------------------------------|
|----------------------------------------------------------------|
|----------------------------------------------------------------|
|----------------------------------------------------------------|
|-2---------------1------------4-6\--------------6---------------|

|----------------------------------------------------------------|
|------------------------------------------3---------------------|
|----------4---------------3------------3----------------------3-|
|----1--4------------0--3---------1--4---------------1-3-4-3-4---|
|-2------------0~-1------------4~------------------4-------------|

|----------------------------------------------------------------|
|------------------------------------------3---1-2-3-------------|
|----------4---------------3------------3------------------------|
|----1--4------------0--3---------1--4---------------1-----------|
|-2------------0~-1------------4~--------------------------------|

Almost there ...

Sign in to get your own page with links to favourite songs and more. You are just one click away...

Login with Facebook Login with Google