Search tabs and chords

Search for song, artist or band

Log in

One click and you are in

Login with Facebook Login with Google

Why sign up and log in

Guitar Tabs Explorer
Bruno Mars bass tabs for Count on me

Bass tabs with lyrics

Intro

G|--------------|
D|--------------|
A|--R--E--S--T--|
E|--------------|

G|---------------------------------|
D|---------------------------------|
A|--3~--3~--7~--7~-----------------|
E|------------------5~--3~--1~-----|
Verse

Oh uh-huh
If you ever find yourself stuck in the middle of the sea
I'll sail the world to find you
G|----------------------------------------------------|
D|----------------------------------------------------|
A|--3--3--3--3-5-7--7--7--7---------------------------|
E|--------------------------7-5--5--3--3--1--1--3--3--|

If you ever find yourself lost in the dark and you can't see
I'll be the light to guide you
G|----------------------------------------------------|
D|----------------------------------------------------|
A|--3--3--3--3-5-7--7--7--7---------------------------|
E|--------------------------7-5--5--3--3--1--1--3--3--|


Pre-Chorus

Find out what we're made of
When we are called to help our friends in need
G|------------------------------------------|
D|------------------------------------------|
A|--5--5--5--5--7--7--7--7--8--8--8--8--10--|
E|------------------------------------------|

Chorus

You can count on me like 1, 2, 3
I'll be there
And I know when I need it
G|-----------------------------------------------------------|
D|-----------------------------------------------------------|
A|--3---3---3---3-5-7---7---7----7---------------------------|
E|-----3---3---3-------7---7---7---7-5--5--3--3--1--1--3--3--|

I can count on you like 4, 3, 2
You'll be there
'Cause that's what friends are supposed to do, oh yeah
G|-----------------------------------------------------------|
D|-----------------------------------------------------------|
A|--3---3---3---3-5-7---7---7----7---------------------------|
E|-----3---3---3-------7---7---7---7-5--5--3--3--1--1--3--3--|


Ooooooh, oooohhh yeah, yeah
G|-----------------------------------------------------------|
D|-----------------------------------------------------------|
A|--3---3---3---3-5-7---7---7----7---------------------------|
E|-----3---3---3-------7---7---7---7-5--5--3--3--1--1--3--3--|


Verse 2

If you're tossin' and you're turnin'
And you just can't fall asleep
I'll sing a song beside you
G|-----------------------------------------------------------|
D|-----------------------------------------------------------|
A|--3---3---3---3-5-7---7---7----7---------------------------|
E|-----3---3---3-------7---7---7---7-5--5--3--3--1--1--3--3--|

And if you ever forget how much you really mean to me
Every day I will remind you
G|-----------------------------------------------------------|
D|-----------------------------------------------------------|
A|--3---3---3---3-5-7---7---7----7---------------------------|
E|-----3---3---3-------7---7---7---7-5--5--3--3--1--1--3--3--|


Pre-Chorus 2

Oooh
Find out what we're made of
When we are called to help our friends in need
G|------------------------------------------|
D|------------------------------------------|
A|--5--5--5--5--7--7--7--7--8--8--8--8--10--|
E|------------------------------------------|


Chorus 2

You can count on me like 1, 2, 3
I'll be there
And I know when I need it
G|-----------------------------------------------------------|
D|-----------------------------------------------------------|
A|--3---3---3---3-5-7---7---7----7---------------------------|
E|-----3---3---3-------7---7---7---7-5--5--3--3--1--1--3--3--|

I can count on you like 4, 3, 2
You'll be there
'Cause that's what friends are supposed to do, oh yeah
G|-----------------------------------------------------------|
D|-----------------------------------------------------------|
A|--3---3---3---3-5-7---7---7----7---------------------------|
E|-----3---3---3-------7---7---7---7-5--5--3--3--1--1--3--3--|

Ooooooh, oooohhh yeah, yeah
G|-----------------------------------------------------------|
D|-----------------------------------------------------------|
A|--3---3---3---3-5-7---7---7----7---------------------------|
E|-----3---3---3-------7---7---7---7-5--5--3--3--1--1--3--3--|

You'll always have my shoulder when you cry
G|----------------------------------------------------|
D|----------------------------------------------------|
A|--3--3--3--3-5-7--7--7--7---------------------------|
E|--------------------------7-5--5--3--3--1--1--3--3--|

I'll never let go, never say goodbye
You know...
G|----------------------------------------------------|
D|----------------------------------------------------|
A|--3--3--3--3-5-7--7--7--7---------------------------|
E|--------------------------7-5--5--3--3--1--1--3--3--|


Outro

You can count on me like 1, 2, 3
I'll be there
And I know when I need it
G|-----------------------------------------------------------|
D|-----------------------------------------------------------|
A|--3---3---3---3-5-7---7---7----7---------------------------|
E|-----3---3---3-------7---7---7---7-5--5--3--3--1--1--3--3--|

I can count on you like 4, 3, 2
You'll be there
'Cause that's what friends are supposed to do, oh yeah
G|-----------------------------------------------------------|
D|-----------------------------------------------------------|
A|--3---3---3---3-5-7---7---7----7---------------------------|
E|-----3---3---3-------7---7---7---7-5--5--3--3--1--1--3--3--|

Ooooooh, oooohhh
You can count on me 'cause I can count on you
G|-----------------------------------------------------------------|
D|-----------------------------------------------------------------|
A|--3---3---3---3-5-7---7---7----7---------------------------3~----|
E|-----3---3---3-------7---7---7---7-5--5--3--3--1--1--3--3--------|

Almost there ...

Sign in to get your own page with links to favourite songs and more. You are just one click away...

Login with Facebook Login with Google