Search tabs and chords

Search for song, artist or band

Log in

One click and you are in

Login with Facebook Login with Google

Why sign up and log in

Guitar Tabs Explorer
Bruno Mars guitar tabs for Calling all my lovelies

Guitar tabs

Tuning: Standard (E A D G B E)

Solo:

e|-----------------------------------------------------------------------|
B|--------------------------------------------------4-/----9-----7-~-----|
G|------------------------------------------4-6--------------------------|
D|--------------------------------4-6-4-6--------------------------------|
A|-----------------4-4-6-4-6---------------------------------------------|
E|----15-\---------------------------------------------------------------|

e|---------------------------------------------------------------------------------------|
B|------------------------------------------------4/-----9------7-~---9-10----12---------|
G|----------------------------------------4-6--------------------------------------------|
D|-----------------------------4-6-4-6---------------------------------------------------|
A|----------------4-4-6-4-6--------------------------------------------------------------|
E|------15-\-----------------------------------------------------------------------------|

Now you don’t have to pull off you can either hammer on or just play it regular
e|---------------12---14----15-~b-----16~b--------14h16p14--16-\12--|
B|----12---14-------------------------------------------------------|
G|------------------------------------------------------------------|
D|------------------------------------------------------------------|
A|------------------------------------------------------------------|
E|------------------------------------------------------------------|

e|--------12h14\-----------12---10---9-------------------------------------------------|
B|-------------------------------------------------------------------------------------|
G|-------------------------------------------------------------------------------------|
D|-------------------------------------------------------------------------------------|
A|-------------------------------------------------------------------------------------|
E|-------------------------------------------------------------------------------------|

Now here’s the hard part can’t stop you have to keep on doing hammer ons
e|-----12h14-12h14-12h14-12h14-12h14-12h14-12h14-----------------------------|
B|---------------------------------------------------------------------------|
G|---------------------------------------------------------------------------|
D|---------------------------------------------------------------------------|
A|---------------------------------------------------------------------------|
E|---------------------------------------------------------------------------|

you don’t have to bend you can let it ring then play
e|---19b-------17-17-15-15-14-14-12-12-------12-14-15-17/-19-----------------|
B|---------------------------------------------------------------------------|
G|---------------------------------------------------------------------------|
D|---------------------------------------------------------------------------|
A|---------------------------------------------------------------------------|
E|---------------------------------------------------------------------------|

again you don’t have to bend you let it ring if you want
e|--------17-17-15-15-14-14-12-12------------12---14--15---17--19~~~---------|
B|---------------------------------------------------------------------------|
G|---------------------------------------------------------------------------|
D|---------------------------------------------------------------------------|
A|---------------------------------------------------------------------------|
E|---------------------------------------------------------------------------|

You can choose to play twice if the 12 fret on high A chord diagramE MajorE or once
e|--------17-17-15-15-14-14-12/-16h17-16\--|
B|-----------------------------------------|
G|-----------------------------------------|
D|-----------------------------------------|
A|-----------------------------------------|
E|-----------------------------------------|


************************************

| h   Hammer-on
| p   Pull-off
| b   Bend
| /   Slide up
| \   Slide down
| ~   Vibrato

************************************

Other versions of Calling All My Lovelies

Calling all my loveliesChords
Calling all my lovelies acousticChords
data-matched-content-ui-type="image_card_stacked"

Almost there ...

Sign in to get your own page with links to favourite songs and more. You are just one click away...

Login with Facebook Login with Google