Search tabs and chords

Search for song, artist or band

Log in

One click and you are in

Login with Facebook Login with Google

Why sign up and log in

Guitar Tabs Explorer
Bruno Mars guitar tabs for Billionaire

Guitar tabs

it is basically played the same through out the whole song. you should check out the video
help with picking and strumming..have fun

E---5-------------|
B---5-------------|
G---5----6--------|
D---5--------7----|
A---5--------7----|
E---5-------------|
E---9-------------|
B---9-------------|
G---9----10-------|
D---9--------11---|
A---9--------11---|
E---9-------------|

E---9-------------|
B---9----10-------|
G---9--------11---|
D---9--------11---|
A---9-------------|
E---9-------------|

E---7-------------|
B---7--------9----|
G---7--------9----|
D---7--------9----|
A---7-------------|

Other versions of Billionaire

BillionaireChords
Billionaire (Ver. 2)Chords
Billionaire acousticChords
Billionaire soloChords
Billionaire ukuleleChords
Billionaire (Ver. 2)Tabs
Billionaire acousticTabs
data-matched-content-ui-type="image_card_stacked"

Almost there ...

Sign in to get your own page with links to favourite songs and more. You are just one click away...

Login with Facebook Login with Google