Log in

One click and you are in

Login with Facebook Login with Google

Why sign up and log in

Guitar Tabs Explorer
Bruno Mars bass tabs for All i ask

Bass tabs

Tuning: Standard (E A D G)

G|---------------------------------------------------------------------------|
D|---------------------------------------------------------------------------|
A|-2-4-5-------------------------2---------------11-------3--4---------------|
E|----------------5----4--2-----------5--4-----4-------4------------2--------|

G|------------3-h5---------7---5---------------------------------------------|
D|---------------------------7-----------------------------------------------|
A|-2------3---------3------------3-0---------------------5-----5---3/5-------|
E|-----------------------------------3-1-----1-1-----5-5---------5-----5-3---|

G|----------------------------5----------------------------------------------|
D|-5----------------------------2---3--3-------------------------------------|
A|-----3--h5------3----33----------------3-------------3-h5----3-h5----------|
E|-------------3---------------------------5-1---1-3-5------------------2--3-|

G|-----------------5---------------------------------------------------------|
D|-----3-h5-----------------2-3----------0-3-1-2-----------------------------|
A|--5---------3-----3-3---------3-0-----------------------3---5--------4--3--|
E|----------------------------------1----------------0-5---------------------|

G|---------------------------------------------------------------------------|
D|---------------------------3--h5--------10------------3-3-3-3-3--UNTIL NEXT|
A|-----1-----1-1-----3--h5------------3------------------3-3-3-3-3----NOTE---|
E|-1------------------------------------3/8----------------------------------|

G|---------------------------------------------------------------------------|
D|---------------------------------------------------------------------------|
A|-4-------6-------8---------------------------------------------------------|
E|---------------------------------------------------------------------------|


************************************

| h  Hammer-on
| /  Slide up

************************************

Almost there ...

Sign in to get your own page with links to favourite songs and more. You are just one click away...

Login with Facebook Login with Google