Search tabs and chords

Search for song, artist or band

Log in

One click and you are in

Login with Facebook Login with Google

Why sign up and log in

Guitar Tabs Explorer
Bruno Mars bass tabs for 24k magic

Bass tabs

Bruno Mars - 24K Magic
4/4 - 92-107 BPM
5-string (synth) bass
Standard tuning (BEADG)

h - Hammer-on
p - Pull-off
L - Tied note
. - Staccato
/ - Slide up
\ - Slide down

Intro
92 BPM accel.________________________________________________________
G|---------------------------------|---------------------------------|
D|---------------------------------|---------------------------------|
A|---------------------------------|---------------------------------| x5
E|---------------------------------|---------------------------------|
B|---------------------------------|---------------------------------|
   1 e + a 2 e + a 3 e + a 4 e + a   1 e + a 2 e + a 3 e + a 4 e + a

accel._____________________________
G|---------------------------------|
D|---------------------------------|
A|---------------------------------|
E|---------------------------------|
B|---------------------------------|
   1 e + a 2 e + a 3 e + a 4 e + a


Chorus
107 BPM
G|---------------------------------|---------------------------------|
D|---------------------------------|---------------------------------|
A|---------------------------------|---------------------------------|
E|---------------------4.--4h8p4.--|-4h6---6-------4.6.8.4---6.6.----|
B|-6\------------4.6.6.------------|-----------------------------4---|
   1 e + a 2 e + a 3 e + a 4 e + a   1 e + a 2 e + a 3 e + a 4 e + a

G|---------------------------------|---------------------------------|
D|---------------------------------|---------------------------------|
A|---------------------------------|---------------------------------|
E|---------------------4.--4h8p4.--|-4h6---6-------4.6.8.4---6.6.----|
B|-6\------------4.6.6.------------|-----------------------------4---|
   1 e + a 2 e + a 3 e + a 4 e + a   1 e + a 2 e + a 3 e + a 4 e + a

G|---------------------------------|---------------------------------|
D|---------------------------------|---------------------------------|
A|---------------------------------|---------------------------------|
E|---------------------4.--4h8p4.--|-4h6---6-----6-8-9-------8-------|
B|-6\------------4.6.6.------------|---------------------------------|
   1 e + a 2 e + a 3 e + a 4 e + a   1 e + a 2 e + a 3 e + a 4 e + a

G|---------------------------------|---------------------------------|
D|---------------------------------|---------------------------------|
A|-----------------------------6h8-|---------------------------------|
E|---------------------4.--6h8-----|---------------------------------|
B|-6\------------4.6.6.------------|-6.--------------6.------6.------|
   1 e + a 2 e + a 3 e + a 4 e + a   1 e + a 2 e + a 3 e + a 4 e + a

Verse 1

G|---------------------------------|---------------------------------|
D|---------------------------------|---------------------------------|
A|---------------------------------|---------------------------------|
E|---------------------4.--4h8p4.--|-4h6---6-------4.6.8.4---6.6.----|
B|-6\------------4.6.6.------------|-----------------------------4---|
   1 e + a 2 e + a 3 e + a 4 e + a   1 e + a 2 e + a 3 e + a 4 e + a

G|---------------------------------|---------------------------------|
D|---------------------------------|---------------------------------|
A|---------------------------------|---------------------------------|
E|---------------------4.--4h8p4.--|-4h6---6-------4.6.8.4---6.6.----|
B|-6\------------4.6.6.------------|-----------------------------4---|
   1 e + a 2 e + a 3 e + a 4 e + a   1 e + a 2 e + a 3 e + a 4 e + a

G|---------------------------------|---------------------------------|
D|---------------------------------|---------------------------------|
A|---------------------------------|---------------------------------|
E|---------------------4.--4h8p4.--|-4h6---6-----6-8-9-------8-------|
B|-6\------------4.6.6.------------|---------------------------------|
   1 e + a 2 e + a 3 e + a 4 e + a   1 e + a 2 e + a 3 e + a 4 e + a

G|---------------------------------|---------------------------------|
D|---------------------------------|---------------------------------|
A|-----------------------------6h8-|---------------------------------|
E|---------------------4.--6h8-----|---------------------------------|
B|-6\------------4.6.6.------------|-6.--------------6.------6.------|
   1 e + a 2 e + a 3 e + a 4 e + a   1 e + a 2 e + a 3 e + a 4 e + a


Pre-Chorus

G|---------------------------------|---------------------------------|
D|---------------------------------|---------------------------------|
A|-4-------4-----------------------|---------------------------------|
E|-------------1---1-1-----1-------|-1-------1-----1-1-------1-------|
B|---------------------------------|---------------------------------|
   1 e + a 2 e + a 3 e + a 4 e + a   1 e + a 2 e + a 3 e + a 4 e + a

G|---------------------------------|---------------------------------|
D|---------------------------------|-----------------------------1h3-|
A|-4-------4-----------------------|---------------------------------|
E|-------------1---1-1-----1-------|-1-------1-----1-1-------1-------|
B|---------------------------------|---------------------------------|
   1 e + a 2 e + a 3 e + a 4 e + a   1 e + a 2 e + a 3 e + a 4 e + a

G|---------------------------------|---------------------------------|
D|---------------------------------|---------------------------------|
A|-4-------4-----------------------|---------------------------------|
E|-------------1---1-1-----1-------|-1-------1-----1-1-------1-------|
B|---------------------------------|---------------------------------|
   1 e + a 2 e + a 3 e + a 4 e + a   1 e + a 2 e + a 3 e + a 4 e + a

G|---------------------------------|---------------------------------|
D|-----------------------------1h3-|---------------------------------|
A|-4-------4---------------1h3-----|-1-1-----3-3-----4-4-----8\------|
E|-------------1---1-1-------------|---------------------------------|
B|---------------------------------|---------------------------------|
   1 e + a 2 e + a 3 e + a 4 e + a   1 e + a 2 e + a 3 e + a 4 e + a


Chorus

G|---------------------------------|---------------------------------|
D|---------------------------------|---------------------------------|
A|---------------------------------|---------------------------------|
E|---------------------4.--4h8p4.--|-4h6---6-------4.6.8.4---6.6.----|
B|-6\------------4.6.6.------------|-----------------------------4---|
   1 e + a 2 e + a 3 e + a 4 e + a   1 e + a 2 e + a 3 e + a 4 e + a

G|---------------------------------|---------------------------------|
D|---------------------------------|---------------------------------|
A|---------------------------------|---------------------------------|
E|---------------------4.--4h8p4.--|-4h6---6-------4.6.8.4---6.6.----|
B|-6\------------4.6.6.------------|-----------------------------4---|
   1 e + a 2 e + a 3 e + a 4 e + a   1 e + a 2 e + a 3 e + a 4 e + a

G|---------------------------------|---------------------------------|
D|---------------------------------|---------------------------------|
A|---------------------------------|---------------------------------|
E|---------------------4.--4h8p4.--|-4h6---6-----6-8-9-------8-------|
B|-6\------------4.6.6.------------|---------------------------------|
   1 e + a 2 e + a 3 e + a 4 e + a   1 e + a 2 e + a 3 e + a 4 e + a

G|---------------------------------|---------------------------------|
D|---------------------------------|---------------------------------|
A|-----------------------------6h8-|---------8\----------------------|
E|---------------------4.--6h8-----|---------------------------------|
B|-6\------------4.6.6.------------|-6.--------------6.------6.------|
   1 e + a 2 e + a 3 e + a 4 e + a   1 e + a 2 e + a 3 e + a 4 e + a


Verse 2

G|---------------------------------|---------------------------------|
D|---------------------------------|---------------------------------|
A|---------------------------------|---------------------------------|
E|---------------------4.--4h8p4.--|-4h6---6-------4.6.8.4---6.6.----|
B|-6\------------4.6.6.------------|-----------------------------4---|
   1 e + a 2 e + a 3 e + a 4 e + a   1 e + a 2 e + a 3 e + a 4 e + a

G|---------------------------------|---------------------------------|
D|---------------------------------|---------------------------------|
A|---------------------------------|---------------------------------|
E|---------------------4.--4h8p4.--|-4h6---6-------4.6.8.4---6.6.----|
B|-6\------------4.6.6.------------|-----------------------------4---|
   1 e + a 2 e + a 3 e + a 4 e + a   1 e + a 2 e + a 3 e + a 4 e + a

G|---------------------------------|---------------------------------|
D|---------------------------------|---------------------------------|
A|---------------------------------|---------------------------------|
E|---------------------4.--4h8p4.--|-4h6---6-----6-8-9-------8.------|
B|-6\------------4.6.6.------------|---------------------------------|
   1 e + a 2 e + a 3 e + a 4 e + a   1 e + a 2 e + a 3 e + a 4 e + a

G|---------------------------------|---------------------------------|
D|---------------------------------|---------------------------------|
A|-----------------------------6h8-|---------------------------------|
E|---------------------4.--6h8-----|---------------------------------|
B|---------------4.6.6.------------|-6.--------------6.------6.------|
   1 e + a 2 e + a 3 e + a 4 e + a   1 e + a 2 e + a 3 e + a 4 e + a


Pre-Chorus

G|---------------------------------|---------------------------------|
D|---------------------------------|---------------------------------|
A|-4---4---4-----------------------|---------------------------------|
E|-------------1---1-1-----1-------|-1-------1-----1-1-------1-------|
B|---------------------------------|---------------------------------|
   1 e + a 2 e + a 3 e + a 4 e + a   1 e + a 2 e + a 3 e + a 4 e + a

G|---------------------------------|---------------------------------|
D|---------------------------------|-----------------------------1h3-|
A|-4-------4-----------------------|---------------------------------|
E|-------------1---1-1-----1-------|-1-------1-----1-1-------1-------|
B|---------------------------------|---------------------------------|
   1 e + a 2 e + a 3 e + a 4 e + a   1 e + a 2 e + a 3 e + a 4 e + a

G|---------------------------------|---------------------------------|
D|---------------------------------|---------------------------------|
A|-4-------4-----------------------|---------------------------------|
E|-------------1---1-1-----1-------|-1-------1-----1-1-------1-------|
B|---------------------------------|---------------------------------|
   1 e + a 2 e + a 3 e + a 4 e + a   1 e + a 2 e + a 3 e + a 4 e + a

G|---------------------------------|---------------------------------|
D|-----------------------------1h3-|---------------------------------|
A|-4-------4---------------1h3-----|-1-1-----3-3-----4-4-----8\------|
E|-------------1---1-1-------------|---------------------------------|
B|---------------------------------|---------------------------------|
   1 e + a 2 e + a 3 e + a 4 e + a   1 e + a 2 e + a 3 e + a 4 e + a


Chorus

G|---------------------------------|---------------------------------|
D|---------------------------------|---------------------------------|
A|---------------------------------|---------------------------------|
E|---------------------4.--4h8p4.--|-4h6---6-------4.6.8.4---6.6.----|
B|-6\------------4.6.6.------------|-----------------------------4---|
   1 e + a 2 e + a 3 e + a 4 e + a   1 e + a 2 e + a 3 e + a 4 e + a

G|---------------------------------|---------------------------------|
D|---------------------------------|---------------------------------|
A|---------------------------------|---------------------------------|
E|---------------------4.--4h8p4.--|-4h6---6-------4.6.8.4---6.6.----|
B|-6\------------4.6.6.------------|-----------------------------4---|
   1 e + a 2 e + a 3 e + a 4 e + a   1 e + a 2 e + a 3 e + a 4 e + a

G|---------------------------------|---------------------------------|
D|---------------------------------|---------------------------------|
A|---------------------------------|---------------------------------|
E|---------------------4.--4h8p4.--|-4h6---6-----6-8-9-------8-------|
B|-6\------------4.6.6.------------|---------------------------------|
   1 e + a 2 e + a 3 e + a 4 e + a   1 e + a 2 e + a 3 e + a 4 e + a

G|---------------------------------|---------------------------------|
D|---------------------------------|---------------------------------|
A|-----------------------------6h8-|---------8\----------------------|
E|---------------------4.--6h8-----|---------------------------------|
B|-6\------------4.6.6.------------|-6.--------------6.------6.------|
   1 e + a 2 e + a 3 e + a 4 e + a   1 e + a 2 e + a 3 e + a 4 e + a


Verse 3

G|---------------------------------|---------------------------------|
D|---------------------------------|---------------------------------|
A|---------------------------------|---------------------------------|
E|---------------------4.--4h8p4.--|-4h6---6-------4.6.8.4---6.6.----|
B|-6\------------4.6.6.------------|-----------------------------4---|
   1 e + a 2 e + a 3 e + a 4 e + a   1 e + a 2 e + a 3 e + a 4 e + a

G|---------------------------------|---------------------------------|
D|---------------------------------|---------------------------------|
A|---------------------------------|---------------------------------|
E|---------------------4.--4h8p4.--|-4h6---6-------4.6.8.4---6.6.----|
B|-6\------------4.6.6.------------|-----------------------------4---|
   1 e + a 2 e + a 3 e + a 4 e + a   1 e + a 2 e + a 3 e + a 4 e + a

G|---------------------------------|---------------------------------|
D|---------------------------------|---------------------------------|
A|---------------------------------|---------------------------------|
E|---------------------4.--4h8p4.--|-4h6---6-----6-8-9-------8-------|
B|-6\------------4.6.6.------------|---------------------------------|
   1 e + a 2 e + a 3 e + a 4 e + a   1 e + a 2 e + a 3 e + a 4 e + a

G|---------------------------------|---------------------------------|
D|---------------------------------|---------------------------------|
A|-----------------------------6h8-|---------------------------------|
E|---------------------4.--6h8-----|---------------------------------|
B|---------------4.6.6.------------|-6.--------------6.------6.------|
   1 e + a 2 e + a 3 e + a 4 e + a   1 e + a 2 e + a 3 e + a 4 e + a


Bridge
  3/4                       4/4
G|-------------------------|---------------------------------|
D|-------------------------|---------------------------------|
A|-------------------------|---------------------------------|
E|----------------/8.------|/6---------------6---4---4-6-----|
B|-------------------------|-----------------------6---------|
   1 e + a 2 e + a 3 e + a   1 e + a 2 e + a 3 e + a 4 e + a

G|---------------------------------|---------------------------------|
D|---------------------------------|---------------------------------|
A|---------------------------------|---------------------------------|
E|-L----------------------/8.------|/6---------------6---4---4-6-----|
B|---------------------------------|-----------------------6---------|
   1 e + a 2 e + a 3 e + a 4 e + a   1 e + a 2 e + a 3 e + a 4 e + a

                                    5/4
G|---------------------------------|-----------------------------------------|
D|---------------------------------|-----------------------------------------|
A|---------------------------------|-----------------------------------------|
E|------------------------/8.------|/6---------------6---4---4-6---------6-8-|
B|---------------------------------|-----------------------6-----------------|
   1 e + a 2 e + a 3 e + a 4 e + a   1 e + a 2 e + a 3 e + a 4 e + a 5 e + a

  4/4
G|---------------------------------|---------------------------------|
D|---------------------------------|---------------------------------|
A|---------------------------------|-1-1-----3-3-----4-4-----8\------|
E|-9---------------1---------------|---------------------------------|
B|---------------------------------|---------------------------------|
   1 e + a 2 e + a 3 e + a 4 e + a   1 e + a 2 e + a 3 e + a 4 e + a


Chorus

G|---------------------------------|---------------------------------|
D|---------------------------------|---------------------------------|
A|---------------------------------|---------------------------------|
E|---------------------4.--4h8p4.--|-4h6---6-------4.6.8.4---6.6.----|
B|-6\------------4.6.6.------------|-----------------------------4---|
   1 e + a 2 e + a 3 e + a 4 e + a   1 e + a 2 e + a 3 e + a 4 e + a

G|---------------------------------|---------------------------------|
D|---------------------------------|---------------------------------|
A|---------------------------------|---------------------------------|
E|---------------------4.--4h8p4.--|-4h6---6-------4.6.8.4---6.6.----|
B|-6\------------4.6.6.------------|-----------------------------4---|
   1 e + a 2 e + a 3 e + a 4 e + a   1 e + a 2 e + a 3 e + a 4 e + a

G|---------------------------------|---------------------------------|
D|---------------------------------|---------------------------------|
A|---------------------------------|---------------------------------|
E|---------------------4.--4h8p4.--|-4h6---6-----6-8-9-------8-------|
B|-6\------------4.6.6.------------|---------------------------------|
   1 e + a 2 e + a 3 e + a 4 e + a   1 e + a 2 e + a 3 e + a 4 e + a

G|---------------------------------|---------------------------------|
D|---------------------------------|---------------------------------|
A|-----------------------------6h8-|-8-------6-------4-------3-------|
E|---------------------4.--6h8-----|---6-6-6---4-4-4---3-3-3---2-----|
B|-6\------------4.6.6.------------|---------------------------------|
   1 e + a 2 e + a 3 e + a 4 e + a   1 e + a 2 e + a 3 e + a 4 e + a


Outro

G|---------------------------------|---------------------------------|
D|---------------------------------|---------------------------------|
A|---------------------------------|---------------------------------|
E|---------------------4.--4h8p4.--|-4h6---6-------4.6.8.4---6.6.----|
B|-6\------------4.6.6.------------|-----------------------------4---|
   1 e + a 2 e + a 3 e + a 4 e + a   1 e + a 2 e + a 3 e + a 4 e + a

G|---------------------------------|---------------------------------|
D|---------------------------------|---------------------------------|
A|---------------------------------|---------------------------------|
E|---------------------4.--4h8p4.--|-4h6---6-------4.6.8.4---6.6.----|
B|-6\------------4.6.6.------------|-----------------------------4---|
   1 e + a 2 e + a 3 e + a 4 e + a   1 e + a 2 e + a 3 e + a 4 e + a

G|---------------------------------|---------------------------------|
D|---------------------------------|---------------------------------|
A|---------------------------------|---------------------------------|
E|---------------------4.--4h8p4.--|-4h6---6-----6-8-9-------8-------|
B|-6\------------4.6.6.------------|---------------------------------|
   1 e + a 2 e + a 3 e + a 4 e + a   1 e + a 2 e + a 3 e + a 4 e + a

G|---------------------------------|---------------------------------|
D|---------------------------------|---------------------------------|
A|-----------------------------6h8-|---------8\----------------------|
E|---------------------4.--6h8-----|---------------------------------|
B|-6\------------4.6.6.------------|-6.--------------6.------6.------|
   1 e + a 2 e + a 3 e + a 4 e + a   1 e + a 2 e + a 3 e + a 4 e + a

Almost there ...

Sign in to get your own page with links to favourite songs and more. You are just one click away...

Login with Facebook Login with Google