Log in

One click and you are in

Login with Facebook Login with Google

Why sign up and log in

Guitar Tabs Explorer
Maroon 5 tabs for This love

Guitar tabs

All by mikeandelliot@yahoo.com
If  there are any questions email me.  This tab is pretty easy and fun to play.


Intro
----------------------------------------------------------------
----------------------------------------------------------------
----------------------------------------------------------------
------------------------s5---4---3-----3----------------------
------2---2---5---3------------------------6----5------------
--------------------------------------------------------4-----6
Part 1

--3---3---8----3
--3---4---9----3
--4---3---8----4
--3---5---10--3
--5---3---8----5
--3---3---8----3

Part 2

--3---8----6---8
--4---9----6---8
--3---8----7---8
--5---10----6--8
--3---8----8---6
--3---8----6---6

That’s it.  Great song I play it a lot.  Good luck

Other versions of This Love

This loveChords
This love (Ver. 2)Chords
This love ukuleleChords

Almost there ...

Sign in to get your own page with links to favourite songs and more. You are just one click away...

Login with Facebook Login with Google