Log in

One click and you are in

Login with Facebook Login with Google

Why sign up and log in

Guitar Tabs Explorer
Maroon 5 tabs for She will be loved

Guitar tabs with lyrics

"She Will Be Loved"

Maroon5
Songs About Jane
Figure 1
------------------- ----------------- ---------------------
------------------- ----------------- ---8-----------------
-----8--8-8-8------ ---7---7-------7- ------8--8--8--8-----
----10-10-8-8------ ---6---6---6----- -----10-10-10-10-----
--------------~8--- -8-----------8--- ~10-------------~8---
-8---8--8-8-8----6- -------6--------- ~-8---8--8--8--8---6-

-----------------
-----------------
---7---7-------7-
---6---6---6-----
-8-----------8---
-------6---------


Verse

"Beauty queen of only 18 she...."

Figure 1 - 4 times


Chorus

"I don't mind spending every day....."

3 parts
play this bar 12 times
--------------------
-----11-----11---11-
-8-8----8-8----8----
--------------------
--------------------
--------------------
w/
--- --- --- -6- --- --- --- ---- --- --- --- ---- ------
-6- -6- -6- --- -6- -6- -8- --9- -6- -6- -8- --9- ---11-
-8- -7- -8- -8- -8- -7- -8- --8- -8- -7- -8- --8- -8----
-8- -8- -8- -8- -8- -8- -8- -10- -8- -8- -8- -10- ------
--- --- --- --- --- --- --- ---- --- --- --- ---- ------
--- --- --- --- --- --- --- ---- --- --- --- ---- ------
w/
----------------- -----------------
-4-----4-----4--- -4-----3-----3---
---3-3---3-3---3- ---3-3---3-3---3-
----------------- ----------------- play 3 times
----------------- -----------------
----------------- -----------------

part 3 cont.
----------------- ----------------- -----------------
-4-----4-----4--- -4-----4-----4--- -4-----4-----4---
---3-3---3-3---3- ---5-5---5-5---5- ---3-3---3-3---3-
----------------- ----------------- -----------------
----------------- ----------------- -----------------
----------------- ----------------- -----------------

----------------- ----------------- ----------------- ----
-3-----4-----3--- -4-----4-----4--- -4-----4-----4--- -4--
---3-3---3-3---3- ---3-3---3-3---3- ---5-5---5-5---5- ----
----------------- ----------------- ----------------- ----
----------------- ----------------- ----------------- ----
----------------- ----------------- ----------------- ----


Verse

"Tap on my windom....."

play Figure 1 - 4 times



Chorus

"I don't mind spending every day...."

same as before - 4 bars longer

w/4th part
CAPO 1st FRET
-2--- -0--- -3--- --0---
-3--- -3--- -3--- --3---
-2--- -2--- -2--- --2---
----- ----- ----- ------
----- ----- ----- ------
----- ----- ----- ------

play these 4 bars - 3 times
-2--- -0--- -3--- --3---
-3--- -3--- -3--- --3---
-2--- -2--- -2--- --0---
----- ----- ----- ------
----- ----- ----- ------
----- ----- ----- ------


Bridge

"I know where you hide...."

no guitars, but chords are

A chord diagramC minorCm / A chord diagramBb7Bb7  - 4 times then A chord diagramAbAb for 2 bars

then Figure 1 once (hold chord on bar 4)


Chorus

twice as long as first


Outro

"Please don't try so hard to say goodbye...."

------- ------ --------------- -----------------
---6--- ---6-- ---------8----- ---------9-------
-8----- -7---- ----8--------8- ----8------8-----
------- ------ -10---10------- -10---10-----10--
------- ------ --------------- -----------------
------- ------ --------------- -----------------


Scott Taylor
wonderboymusic@yahoo.com
Florida State University
IM: tromba1B

________________________________________________________________________________

Other versions of She Will Be Loved

She will be lovedChords
She will be loved (Ver. 2)Chords
She will be loved (Ver. 3)Chords
She will be loved acousticChords
She will be loved ukuleleChords
She will be loved liveTabs
She will be loved ukulele - introTabs

Almost there ...

Sign in to get your own page with links to favourite songs and more. You are just one click away...

Login with Facebook Login with Google