Log in

One click and you are in

Login with Facebook Login with Google

Why sign up and log in

Guitar Tabs Explorer
Maroon 5 bass tabs for Little of your time

Bass tabs

Tuning: Standard (E A D G)

Difficulty: Novice


Intro:
G|---------|------------------|
D|---------|------------------|
A|---------|------------------|
E|-2-2-1-1-|-5--3---2--1-0--6-|(x2)

Verse 1:
G|------------------|
D|------------------|
A|------------------|
E|-5--3---2--1-0-6--| (x3)

"Nothing worse than when you know that it’s over"
G|------------------|
D|------------------|
A|------------------|
E|-5--3---2-2--1-1--|


Chorus 1:
G|-------------------------------|
D|-------------------------------|
A|--------5--5-5-----------------|
E|-0--0-----------7--7---5--5-5--|

G|-------------------------------|
D|-------------------------------|
A|--------5--5-5-----------------|
E|-0--0-----------7--7---5--5-5--|

"Please don’t leave, stay in bed..."
G|------------------|
D|------------------|
A|------------------|
E|-3--6---7--9--9-9-|

"Gonna make you feel it, Can you still feel it "
G|---------------|------4------------|
D|---------------|-------------------|
A|---------------|-------------------|
E|-0--0--2--2-2--|-0--0---0--2--2-2--|


Verse 2:
G|------------------|
D|------------------|
A|------------------|
E|-5--3---2--1-0-6--| (x3)

"Take the evidence and bury it somewhere"
G|-------------------------|
D|-------------------------|
A|-------------------------|
E|-5--3-x-x-x-x--2-2--1-1--|


Chorus 2:
G|-------------------------------|
D|-------------------------------|
A|--------5--5-5-----------------|
E|-0--0-----------7--7---5--5-5--|

G|-------------------------------|
D|-------------------------------|
A|--------5--5-5-----------------|
E|-0--0-----------7--7---5--5-5--|

"Please don’t leave, stay in bed..."
G|------------------|
D|------------------|
A|------------------|
E|-3--6---7--9--9-9-|

"Gonna make you feel it, Can you still feel it "
G|---------------|------4-------------|
D|---------------|--------------------|
A|---------------|--------------------|
E|-0--0--2--2-2--|-0--0---0--2-2-2-2\-|


Bridge:
G|---------------|
D|---------------|
A|---------------|
E|-5--5---5--0---|

"Oh my, I don't mind being the other guy"
G|---------------|
D|---------------|
A|---------------|
E|-5--5---5--5---|

"Nice try, for these games I do not have the time"
G|---------------|
D|---------------|
A|---------------|
E|-5--5---5--5---|

"If you want me, call me come and take a risk..."
G|------------------|
D|------------------|
A|------------------|
E|-5--3---2--1-0-6--|

G|------------------|
D|------------------|
A|------------------|
E|-5--3---2-2--1-1--|


Chorus 3:
G|-------|------------------------|
D|-------|------------------------|
A|-pause-|-5--5-5-----------------|
E|-------|---------7--7---5--5-5--|

G|-------------------------------|
D|-------------------------------|
A|--------5--5-5-----------------|
E|-0--0-----------7--7---5--5-5--|

"Please don’t leave, stay in bed..."
G|------------------|
D|------------------|
A|------------------|
E|-3--6---7--9--9-9-|

"Gonna make you feel it, Can you still feel it "
G|---------------|------4------------|
D|---------------|-------------------|
A|---------------|-------------------|
E|-0--0--2--2-2--|-0--0---0--2--2-2--|

G|------------3---|--------------------|
D|----------------|--------------------|
A|----------------|--------------------|
E|-0--0--2--2--2--|-0--0-0-0--2-2-2-2--|

G|------------------|
D|------------------|
A|------------------|
E|-5--3---2--1-0-6--|


************************************

| / slide up
| \ slide down
| x Mute note
| h hammer-on
| p pull-off
| ~ vibrato
| + harmonic

************************************

Almost there ...

Sign in to get your own page with links to favourite songs and more. You are just one click away...

Login with Facebook Login with Google