Log in

One click and you are in

Login with Facebook Login with Google

Why sign up and log in

Guitar Tabs Explorer
Maroon 5 tabs for Harder to breathe

Guitar tabs

Song Name: 	Harder to Breathe
Tabbed By:	Rob 'Skip' Pasay


This probably isn't dead accurate, but its a pretty close approximation
for someone who only heard it on the equivilant of a ham radio:
VERSE:

E---------------------------------------------------------
B---------------------------------------------------------
G---------------------------------------------------------
D---------------------------------------------------------
A----------------------------------------------------5-7--
E--5--8----5--8--3----5--8-----5--8--------5--7--8--------


E---------------------------------------------------------
B---------------------------------------------------------
G---------------------------------------------------------
D---------------------------------------------------------
A----------------------------------------------------5-7--
E--5--8----5--8--3----5--8-------8--------5--7--8---------

E---------------------------------------------------------
B---------------------------------------------------------
G---------------------------------------------------------
D---------------------------------------------------------
A----------------------------------------------------5-7--
E--5--8----5--8--3----5--8-----5--8--------5--7--8--------


E---------------------------------------------------------
B---------------------------------------------------------
G---------------------------------------------------------
D---------------------------------------------------------
A---------------------------------------------------------
E--5--8----5--8--3----5--8-------8------------------------


CHORUS:

	A chord diagramC majorC	A chord diagramG+G	Bf( )	A chord diagramFF

E-------8-------3--------6------1-------------------------
B-------8-------3--------6------1-------------------------
G-------9-------4--------7------2-------------------------
D-------10------5--------8------3-------------------------
A-------10------5--------8------3-------------------------
E-------8-------3--------6------1-------------------------

Other versions of Harder To Breathe

Harder to breatheChords
Harder to breathe (Ver. 2)Chords

Almost there ...

Sign in to get your own page with links to favourite songs and more. You are just one click away...

Login with Facebook Login with Google