Harder To Breathe by Maroon 5

Harder To Breathe bass tab by Maroon 5

Bass tabs

Tabbed by: The govenor of love

Tuning: STANDARD

VERSE
G|---------------------------------------------------------------------------|
D|----------------------24-------------------24-------------------24---------|
A|---24--24---24--24--24--24--24---24--24--24--24--24---24--24--24--24--24---|
E|----------4--------4-----------4--------4-----------4--------4-----------4-|

G|----------|
D|----------|
A|24--24----|
E|----------|

CHORUS  (dont play on "is theres anyone out there..."
G|------------------------------------------------------------|
D|------------------------------------------------------------|
A|--4----------------24----------------24----------------24---|
E|------44---7---2024-----44---7---2024-----44---7---2024-----|

BRIDGE
G|---------------------------------------------------------------------------|
D|---------------------------------------------------------------------------|
A|---44--4444--44--4444--44--4444--44--4444--44--4444------------------------|
E|---------------------------------------------------------------------------|

END
G|---------------------------------------------------------------------------|
D|---------------------------------------------------------------------------|
A|----34---------------------------------------------------------------------|
E|---------------------------------------------------------------------------|

Verse
Chorus
Verse
Chorus
Bridge
Chorus
End

Find guitar tabs and chords

A B C D E F G H I J K L M N O P Q R S T U V W X Y Z #