Guitar Tabs Explorer
Maroon 5 guitar tabs for Girls like you

Girls Like You tab


4.8 / 5 [9 votes]

Girls Like You tab by Maroon 5

Guitar tabs

Print
Main Riff:
 (1)  e   &   a   2   e   &   a   3   e   &   a   4   e   &   a
e|---------------------------------------------------------------------------|
B|---------------------------------------------------------------------------|
G|---------------------------------------------------------------------------|
D|----------------5---5---5---5---5------------------------------------------|
A|--------------------------------------------8-----------7------------------|
E|8--------------------------------------------------------------------------|


 (2)  e   &   a   2   e   &   a   3   e   &   a   4   e   &   a
e|---------------------------------------------------------------------------|
B|---------------------------------------------------------------------------|
G|---------------------------------------------------------------------------|
D|----------------5---5---5---5---5-----------7------------------------------|
A|--------------------------------------------------------7------------------|
E|8--------------------------------------------------------------------------|


 (3)  e   &   a   2   e   &   a   3   e   &   a   4   e   &   a
e|---------------------------------------------------------------------------|
B|---------------------------------------------------------------------------|
G|---------------------------------------------------------------------------|
D|----------------5---5---5---5---5------------------------------------------|
A|--------------------------------------------8-----------7------------------|
E|8--------------------------------------------------------------------------|


  (4)  e   &   a   2   e   &   a   3   e   &   a   4   e   &   a
e|---------------------------------------------------------------------------|
B|---------------------------------------------------------------------------|
G|---------------------------------------------------------------------------|
D|---------------------------------------------------------------------------|
A|5-----------7-----------5-------5-----------7-----------5------------------|
E|---------------------------------------------------------------------------|

Other versions of Girls Like You

- Girls like youChords
- Girls like you (Ver. 2)Chords
- Girls like you (Ver. 2)Tabs
- Girls like you - introTabs

Comment this song and these guitar tabs

Do you have corrections, comments on the guitar tabs, thoughts about the song or a message to the author? Write them below.