Log in

One click and you are in

Login with Facebook Login with Google

Why sign up and log in

Guitar Tabs Explorer
Maroon 5 tabs for Control myself

Guitar tabs

Intro
                                                  __________________
                                                  | 1,2
e|---------------------------------------------------------------| |
A chord diagramBB|------5---------------------------------------------5----------| |
A chord diagramG+G|------4---------------------------------------------4----------|.|
A chord diagramD MajorD|----------------------5---------5-----5-------5-------------5--|.|
A chord diagramA augmentedA|------------------4-7-----3s4-7-----6-------6-------------6----| |
A chord diagramE MajorE|--0-4-----0-3s4-7-----------------7-------7-----0-4-----7------| |

Chorus
 ___________                                                ____________
 | 3                                                        | 1
 A chord diagramE MajorE                  A chord diagramDbDb              A chord diagramA augmentedA               A chord diagramGbGb      A chord diagramBB
||-------------------------------------------------------------------| |
||-------------------------------------------------------------------| |
||--9-9-9-9-9-9-9-9-6-6-6-6-6-6-6-6-------------------------4-4-4-4--|.|
||--9-9-9-9-9-9-9-9-6-6-6-6-6-6-6-6-7-7-7-7-7-7-7-7-4-4-4-4-4-4-4-4--|.|
||--7-7-7-7-7-7-7-7-4-4-4-4-4-4-4-4-7-7-7-7-7-7-7-7-4-4-4-4-2-2-2-2--| |
||----------------------------------5-5-5-5-5-5-5-5-2-2-2-2----------| |

_____________
| 2
   A chord diagramGbGb
|-----------|---------------------------------------------------------------|
|-----------|----------------------------------------------------5----------|
|--4-4-4-4--|--9-9-9---------------------------------------------4----------|
|--4-4-4-4--|--9-9-9---------------5---------5-----5-------5-------------5--|
|--2-2-2-2--|--7-7-7-----------4-7-----3s4-7-----6-------6-------------6----|
|-----------|----------0-3s4-7-----------------7-------7-----0-4-----7------|

                                                 __________________
                                                 | 1
|---------------------------------------------------------------| |  To
|------5---------------------------------------------5----------| |  Chorus
|------4---------------------------------------------4----------|.|
|----------------------5---------5-----5-------5-------------5--|.|
|------------------4-7-----3s4-7-----6-------6-------------6----| |
|--0-4-----0-3s4-7-----------------7-------7-----0-4-----7------| |


I haven't yet figured out how it goes at the end of the second chorus so this is all you get for now.

Almost there ...

Sign in to get your own page with links to favourite songs and more. You are just one click away...

Login with Facebook Login with Google