Log in

One click and you are in

Login with Facebook Login with Google

Why sign up and log in

Guitar Tabs Explorer
Maroon 5 bass tabs for Cant stop

Bass tabs

Tuning: Standard (E A D G)

Difficulty: Intermediate


Intro:
G|-------------------------|
D|-------------------------|
A|-------------------------|
E|-5---8--8--5--7----------|

G|-------------------------|
D|-------------------------|
A|-------------------------|
E|-5---8--8--5--7----3--3--|

G|-------------------------|
D|-------------------------|
A|-------------------------|
E|-5---8--8--5--7----------|

G|-------------------------|
D|-------------------------|
A|-------------------------|
E|-5---8--8--5--7-------3--|


Verse: "all alone in my room..."
G|-------------------------|
D|-------------------------|
A|-------------------------|
E|-5---8--8--5--7----------|(x3)

G|-------------------------|
D|-------------------------|
A|-------------------------|
E|-5---8--8--5--7----0--0--|


Pre-chorus: "when I fall asleep..."
G|-------------------------|
D|-------------------------|
A|-------------------------|
E|-5---8--8--5--7----------|(x4)


Chorus: "I can't stop thinking about you"
G|---------------------------|
D|------0--------------------|
A|-2--2---2-3----------2-----|
E|----------------4--4---4-5-|

G|---------------------------|
D|------2--------------------|
A|-3--5---3------------2-----|
E|----------1-----4--4---4-5-|

G|---------------------------|
D|------0--------------------|
A|-2--2---2-3----------2-----|
E|----------------4--4---4-5-|

"I can't stop thinking.."
G|-------------------------|
D|------2------------------|
A|-3--5---3------------2---|
E|----------1-----4--4---4-|

"..about your love"
G|-------------------------|
D|-------------------------|
A|-------------------------|
E|-5---8--8--5--7----------|

G|-------------------------|
D|-------------------------|
A|-------------------------|
E|-5---8--8--5--7----0--0--|


Verse: "can't believe I could think..."
G|-------------------------|
D|-------------------------|
A|-------------------------|
E|-5---8--8--5--7----------|(x3)

G|-------------------------|
D|-------------------------|
A|-------------------------|
E|-5---8--8--5--7-------0--|


Pre-chorus: "when I fall asleep..."
G|-------------------------|
D|-------------------------|
A|-------------------------|
E|-5---8--8--5--7----------|(x4)


Chorus:
G|---------------------------|
D|------0--------------------|
A|-2--2---2-3----------2-----|
E|----------------4--4---4-5-|

G|---------------------------|
D|------2--------------------|
A|-3--5---3------------2-----|
E|----------1-----4--4---4-5-|

G|---------------------------|
D|------0--------------------|
A|-2--2---2-3----------2-----|
E|----------------4--4---4-5-|

G|---------------------------|
D|------2--------------------|
A|-3--5---3------------------|
E|----------1---0~-----------|


Bridge: "what I would give..."
G|--------------------------|
D|-----3------------5-------|
A|-5-------5----7------7----|
E|--------------------------|

G|--------------------------|
D|--------------------------|
A|-----3---------5---3------|
E|-5-------5------------5---|

G|--------------------------|
D|-----3------------5-------|
A|-5-------5----7------7----|
E|--------------------------|

G|--------------------------|
D|--------------------------|
A|-----3---------5---3------|
E|-5-------5------------5/--|

G|--------------------------|
D|-----3------------5-------|
A|-5-------5----7------7----|
E|--------------------------|

G|--------------------------|
D|--------------------------|
A|-----3---------5---3------|
E|-5-------5------------5---|

"thoughts of you are tattooed..."
G|---------------------------|
D|----------------3~-----5~--|
A|-5~-----7~-----------------|
E|---------------------------|


rest


Chorus:
G|---------------------------|
D|-----0---------------------|
A|-2-2---2-3-----------2-----|
E|----------------4--4---4-5-|

G|---------------------------|
D|------2--------------------|
A|-3--5---3------------2-----|
E|----------1-----4--4---4-5-|

G|---------------------------|
D|------0--------------------|
A|-2--2---2-3----------2-----|
E|----------------4--4---4-5-|

G|---------------------------|
D|------2--------------------|
A|-3--5---3------------2-----|
E|----------1-----4--4---4---|

G|---------------------------|
D|-----0---------------------|
A|-2-2---2-3-----------2-----|
E|----------------4--4---4-5-|

G|---------------------------|
D|------2--------------------|
A|-3--5---3------------2-----|
E|----------1-----4--4---4-5-|

G|---------------------------|
D|-----0---------------------|
A|-2-2---2-3-----------2-----|
E|----------------4--4---4-5-|

G|---------------------------|
D|------2--------------------|
A|-3--5---3------------2-----|
E|----------1-----4--4---4---|


************************************

| /  Slide up
| \  Slide down
| ~  Vibrato

************************************

Almost there ...

Sign in to get your own page with links to favourite songs and more. You are just one click away...

Login with Facebook Login with Google