Log in

One click and you are in

Login with Facebook Login with Google

Why sign up and log in

Guitar Tabs Explorer
Maroon 5 chords for Beautiful mistakes ukulele

Beautiful Mistakes Ukulele chords by Maroon 5

Maroon 5 chords for Beautiful mistakes ukulele

Guitar chords with lyrics

Intro:
Cmaj7 G Am Em
Cmaj7 G D
Verse 1:
   Cmaj7   G
It's beautiful, it's bittersweet
    Am    Em
You're like a broken home to me
 Cmaj7    G
I take a shot of memories
  D
And black out like an empty street

 Cmaj7    G
I fill my days with the way you walk
  Am       Em
And fill my nights with broken dreams
 Cmaj7    G
I make up lies inside my head
   D
Like one day you'll come back to me


Pre-Chorus:
  Cmaj7      G        Am
Now I'm not holding on, not holding on
     Em
I'm just depressed that you're gone
Cmaj7     G        N.C.
 Not holding on, not holding on


Chorus:
      Cmaj7  G        Am
Beautiful mistakes, I make inside my head
Em        Cmaj7
She's naked in my bed
G        D            Cmaj7
And now we lie awake, makin' beautiful mistakes
G          Am
I wouldn't take 'еm back
Em          Cmaj7
I'm in love with the past
G        D      N.C.    Cmaj7
And now we liе awake, makin' beautiful mistakes


Post-Chorus:
  G      Am
Na-na-na, in my head
  Em      Cmaj7
Na-na-na, in my bed
  G  D
Na-na-na, making beautiful mistakes


Verse 2:
   Cmaj7
It's pitiful
G          Am    Em
I can't believe how everyday gets worse for me
 Cmaj7     G
I take a break, I cut you off
  D
To keep myself from lookin' soft

 Cmaj7     G
I fill my nights with the way you was
  Am      Em N.C.
And still wake up with broken dreams
Cmaj7        G
 I make these lies inside my head
   D
Feel like they're my reality


Pre-Chorus:
  Cmaj7      G        Am
Now I'm not holding on, not holding on
     Em
I'm just depressed that you're gone
Cmaj7     G        D
 Not holding on, not holding on


Chorus:
      Cmaj7  G        Am
Beautiful mistakes, I make inside my head
Em        Cmaj7
She's naked in my bed
G        D            Cmaj7
And now we lie awake, makin' beautiful mistakes
G          Am
I wouldn't take 'еm back
Em          Cmaj7
I'm in love with the past
G        D            (Cmaj7)
And now we liе awake, makin' beautiful mistakes


Rap:
Cmaj7        G
 You did me wrong 'cause I let you
      Am         Em
Usually, I like my situations beneficial
        Cmaj7       G
Doin' something different, got me lookin' stupid
         D
The only way I'm comin' back to you is if you dream it, lucid
Cmaj7      G
Prove it, if you made a promise then keep it
Am          Em
Why you wanna lie and then get mad? I don't believe it
  Cmaj7        G
But really, I was doin' just fine without you
    D              N.C.
Lookin' fine, sippin' wine, dancin' on club couches
Cmaj7        G
Baby, why you wanna lose me like you don't need me?
Am           Em
Like I don't block you and you still try to reach me
Cmaj7       G
How you figure out how to call me from the TV?
  D
You runnin' outta chances and this time I mean it


Verse 3:
Cmaj7   G               Am
Yeah, bet you miss my love, all in your bed
  Em                 Cmaj7
Now you're stressin' out, pulling your hair
     G               D
Smelling your pillows and wishin' I was there
                   Cmaj7
Slidin' down the shower wall, lookin' sad
    G              Am
I know it's hard to let go, I'm the best
   Em               Cmaj7
Best you ever had and best you gon' get
    G               D
And if we break up, I don't wanna be friends

You're toxic


Chorus:
      Cmaj7  G        Am
Beautiful mistakes, I make inside my head
Em        Cmaj7
She's naked in my bed
G        D            Cmaj7
And now we lie awake, makin' beautiful mistakes
G          Am
I wouldn't take 'еm back
Em          Cmaj7
I'm in love with the past
G        D             Cmaj7
And now we liе awake, makin' beautiful mistakes


Post-Chorus:
  G      Am
Na-na-na, in my head
  Em      Cmaj7
Na-na-na, in my bed
  G  D
Na-na-na, makin' beautiful mistakes
  G      Am
Na-na-na, in my head
  Em      Cmaj7
Na-na-na, in my bed
  G  D
Na-na-na, makin' beautiful mistakes


Outro:
Cmaj7 G      Am
  Na-na-na, in my head
  Em      Cmaj7
Na-na-na, in my bed
  G  D
Na-na-na, making beautiful mistakes


-------------------------VOCAL MELODY------------------------------


Intro:
  Cmaj7    G  Am     Em Cmaj7    G     D
A|-------------2-|-0-------------|-------------2-|----------------|
E|-0-----------3-|-0-----------3-|-0-----------3-|--------2h3p3h2-|
C|-0-----------2-|-0-----------0-|-0-----------2-|--------2-------|
G|-0-----------0-|-2-----------0-|-0-----------0-|--------2-------|


Verse 1:
It's beautiful, it's bittersweet...
A|-----------------|-------------2-2-|-----------------|---------2-0-----|
E|-0-3-0-3-0-3-0-3-|-0-3-0-3-0-3-----|-0-3-0-3-0-3-0-3-|-0-3-0-3-----3-3-|
C|-----------------|-----------------|-----------------|-----------------|
G|-----------------|-----------------|-----------------|-----------------|

I fill my days with the way you walk..
A|---2-2-0--0-0-0-----|-----------------|---2-2-0--0-0-----|---------2-0-----|
E|-0--------------3-3-|-0-3-0-3-0-3-0-3-|-0------------3-3-|-0-3-0-3-----3-3-|
C|--------------------|-----------------|------------------|-----------------|
G|--------------------|-----------------|------------------|-----------------|


Pre-Chorus:
Now I'm not holding on, not holding on
A|-------5-5-2----5-5-2-|---5-5-2---------|---5-5-2-----7-5-0---|
E|-3-3-3--------3-------|-3-------3-5-5-3-|-3---------3-------3-|
C|----------------------|-----------------|---------------------|
G|----------------------|-----------------|---------------------|


Chorus:
Beautiful mistakes, I make inside my head...
A|---0-2--------2-0-2-0-2-0-|-------2-----|-2-0-2-0-2-0-|-0-2-0-2-5-------|
E|-3-----0-3-0--------------|-3-2-3-----0-|-------------|-----------0-3-0-|
C|--------------------------|---------2---|-------------|-----------------|
G|--------------------------|-------------|-------------|-----------------|

I wouldn't take 'em back
A|-2-0-2-0-2-0-|-------2-----|-2-0-2-0-2-0-|-0-2-0-2-5--------|
E|-------------|-3-2-3-----0-|-------------|------------0-3-0-|
C|-------------|---------2---|-------------|------------------|
G|-------------|-------------|-------------|------------------|


Post-Chorus:
Na-na-na, in my head                  (overlaps the first four notes of verse 2)
A|-2-2-0----------|-2-2-0----------|-2-2-0-r---0-2-5-0--------|
E|--------3-2-3-0-|--------3-2-3-0-|-------e-3----------0-3-0-|
C|----------------|----------------|-------s------------------|
G|----------------|----------------|-------t------------------|


Verse 2:
It's pitiful I can't believe how everyday gets worse for me...
A|-----------------|-------------2-2-|-----------------|---------2-0-----|
E|-0-3-0-3-0-3-0-3-|-0-3-0-3-0-3-----|-0-3-0-3-0-3-0-3-|-0-3-0-3-----3-3-|
C|-----------------|-----------------|-----------------|-----------------|
G|-----------------|-----------------|-----------------|-----------------|-

I fill my nights with the way you was...
A|---2-2--0--0-0-0-----|-----------------|---2-2-0--0-0-----|---------2-0------|
E|-0---------------3-3-|-0-3-0-3-0-3-0-3-|-0------------3-3-|-0-3-0-3-----3-3--|
C|---------------------|-----------------|------------------|------------------|
G|---------------------|-----------------|------------------|------------------|


Pre-Chorus:
Now I'm not holding on, not holding on
A|-------5-5-2----5-5-2-|---5-5-2---------|---5-5-2-----7-5-0---|
E|-3-3-3--------3-------|-3-------3-5-5-3-|-3---------3-------3-|
C|----------------------|-----------------|---------------------|
G|----------------------|-----------------|---------------------|


Chorus:
Beautiful mistakes, I make inside my head...
A|---0-2--------2-0-2-0-2-0-|-------2-----|-2-0-2-0-2-0-|-0-2-0-2-5-------|
E|-3-----0-3-0--------------|-3-2-3-----0-|-------------|-----------0-3-0-|
C|--------------------------|---------2---|-------------|-----------------|
G|--------------------------|-------------|-------------|-----------------|

I wouldn't take 'em back
A|-2-0-2-0-2-0-|-------2-----|-2-0-2-0-2-0-|-0-2-5-2-0------|
E|-------------|-3-2-3-----0-|-------------|------------0-3-|
C|-------------|---------2---|-------------|----------------|
G|-------------|-------------|-------------|----------------|


Rap:
Cmaj7        G
 You did me wrong 'cause I let you
      Am         Em
Usually, I like my situations beneficial
        Cmaj7       G
Doin' something different, got me lookin' stupid
         D
The only way I'm comin' back to you is if you dream it, lucid
Cmaj7      G
Prove it, if you made a promise then keep it
Am          Em
Why you wanna lie and then get mad? I don't believe it
  Cmaj7        G
But really, I was doin' just fine without ya
    D
Lookin' fine, sippin' wine, dancin' on club couches
Cmaj7        G
Baby, why you wanna lose me like you don't need me?
Am           Em
Like I don't block you and you still try to reach me
Cmaj7       G
How you figure out how to call me from the TV?
  D
You runnin' outta chances and this time I mean it


Verse 3:
Cmaj7     G             Am
Yeah, bet you miss my love, all in your bed
  Em                 Cmaj7
Now you're stressin' out, pulling your hair
     G               D
Smelling your pillows and wishin' I was there
                   Cmaj7
Slidin' down the shower wall, lookin' sad
    G              Am
I know it's hard to let go, I'm the best
   Em               Cmaj7
Best you ever had and best you gon' get
    G               D
And if we break up, I don't wanna be friends


Chorus:
Beautiful mistakes, I make inside my head...
A|---0-2--------2-0-2-0-2-0-|-------2-----|-2-0-2-0-2-0-|-0-2-0-2-5-------|
E|-3-----0-3-0--------------|-3-2-3-----0-|-------------|-----------0-3-0-|
C|--------------------------|---------2---|-------------|-----------------|
G|--------------------------|-------------|-------------|-----------------|

I wouldn't take 'em back
A|-2-0-2-0-2-0-|-------2-----|-2-0-2-0-2-0-|-0-2-5-2-0--------|
E|-------------|-3-2-3-----0-|-------------|------------0-3-0-|
C|-------------|---------2---|-------------|------------------|
G|-------------|-------------|-------------|------------------|


Post-Chorus:
Na-na-na, in my head
A|-2-2-0----------|-2-2-0----------|-2-2-0-r---0-2-5-0--------|
E|--------3-2-3-0-|--------3-2-3-0-|-------e-3----------0-3-0-|
C|----------------|----------------|-------s------------------|
G|----------------|----------------|-------t------------------|

A|-2-2-0----------|-2-2-0----------|-2-2-0-r---0-2-5-0------|
E|--------3-2-3-0-|--------3-2-3-0-|-------e-3----------0-3-|
C|----------------|----------------|-------s----------------|
G|----------------|----------------|-------t----------------|


Outro:
Cmaj7 G
  Na-na-na
Am  Em
 Na-na-na (Ooh)
Cmaj7 G  D
  Na-na-na

Almost there ...

Sign in to get your own page with links to favourite songs and more. You are just one click away...

Login with Facebook Login with Google