Search tabs and chords

Search for song, artist or band

Log in

One click and you are in

Login with Facebook Login with Google

Why sign up and log in

Guitar Tabs Explorer
Marmozets bass tabs for Love you good

Bass tabs

Tuning: D Tuning (D G C F)

Difficulty: Novice

Intro/Verse 1:
G|---------------------------------------|x8
D|---------------------------------------|
A|---------------------------------------|
D|-10-8-10-11-10-8-10-11-10-8-10-8--5--5-|

Pre-Chorus:
G|-----------------------------------------------------------|
D|-----------------------------------------------------------|
A|-----------------------------------------------------------|
D|-5-5-5-5-5-8-5-8-8-8-8-8-8-10-8-10-10-10-10-10-10-12-10-12-|

G|----------------------------------------------------------------------------|
D|----------------------------------------------------------------------------|
A|----------------------------------------------------------------------------|
D|-12-12-12-12-12-13-12-13-13-13-13-13-13-15-13-15-15-15-15-15-15--16--17\5-5-|

Chorus 1:
G|------------------------------------------|x2
D|------------------------------------------|
A|------------------------------------------|
D|-10-8-10-11-10-8--10--8--5-10-10-8-10-8-8-|

G|----------------------------|x2
D|----------------------------|
A|----------------------------|
D|-10-8-10-11-10-8--10--8--5--|

Verse 2:
G|---------------------------------------|x3
D|---------------------------------------|
A|---------------------------------------|
D|-10-8-10-11-10-8-10-11-10-8-10-8--5--5-|

G|--------------------------------------|x4
D|--------------------------------------|
A|--------------------9-----------------|
D|-10-8-10-11-10-8-10---10-8-10-8--5--5-|

Pre-Chorus:
G|-----------------------------------------------------------|
D|-----------------------------------------------------------|
A|-----------------------------------------------------------|
D|-5-5-5-5-5-8-5-8-8-8-8-8-8-10-8-10-10-10-10-10-10-12-10-12-|

G|----------------------------------------------------------------------------|
D|----------------------------------------------------------------------------|
A|----------------------------------------------------------------------------|
D|-12-12-12-12-12-13-12-13-13-13-13-13-13-15-13-15-15-15-15-15-15--16--17\5-5-|

Chorus 2:
G|------------------------------------------|x2
D|------------------------------------------|
A|------------------------------------------|
D|-10-8-10-11-10-8--10--8--5-10-10-8-10-8-8-|

G|----------------------------|x2
D|----------------------------|
A|----------------------------|
D|-10-8-10-11-10-8--10--8--5--|

Bridge:
G|-------------------------|x8
D|-------------------------|
A|----------81010108101010-| (10's, not 1's & 0's)
D|-5-8-8-10----------------|

Pre-Chorus:
G|-----------------------------------------------------------|
D|-----------------------------------------------------------|
A|-----------------------------------------------------------|
D|-5-5-5-5-5-8-5-8-8-8-8-8-8-10-8-10-10-10-10-10-10-12-10-12-|

G|-------------------------------------------------|
D|-------------------------------------------------|
A|-------------------------------------------------|
D|-12-12-12-12-12-13-12-13-13-13-13-13-13-15-13-15-|

G|-------------------------------------------------------------|
D|-------------------------------------------------------------|
A|-------------------------------------------------------------|
D|-15-15-5-5-5-8-5-8-8-8-8-8-8-10-8-10-10-10-10-10-10-12-10-12-|

G|-------------------------------------------------|
D|-------------------------------------------------|
A|-------------------------------------------------|
D|-12-12-12-12-12-13-12-13-13-13-13-13-13-15-13-15-|

G|-----------------------------------------------------------|
D|-----------------------------------------------------------|
A|-----------------------------------------------------------|
D|-5-5-5-5-5-8-5-8-8-8-8-8-8-10-8-10-10-10-10-10-10-12-10-12-|

G|----------------------------------------------------------------------------|
D|----------------------------------------------------------------------------|
A|----------------------------------------------------------------------------|
D|-12-12-12-12-12-13-12-13-13-13-13-13-13-15-13-15-15-15-15-15-15--16--17\5-5-|

Chorus 2:
G|------------------------------------------|x2
D|------------------------------------------|
A|------------------------------------------|
D|-10-8-10-11-10-8--10--8--5-10-10-8-10-8-8-|

G|----------------------------|x2
D|----------------------------|
A|----------------------------|
D|-10-8-10-11-10-8--10--8--5--|

G|------------------------------|x2
D|------------------------------|
A|------------------------------|
D|-10-8-10-11-10-8--10--8--5--5-|

Outro:
G|---------------------------------|
D|---------------------------------|
A|---------------------------------|
D|-10-8-10-11----10-10----10--8--5-|

Almost there ...

Sign in to get your own page with links to favourite songs and more. You are just one click away...

Login with Facebook Login with Google