Search tabs and chords

Search for song, artist or band

Log in

One click and you are in

Login with Facebook Login with Google

Why sign up and log in

Guitar Tabs Explorer
Marmozets guitar tabs for Collisions intro

Guitar tabs

Here we go...

| All Down Strums|                 | All Down Strums|Down Strum then Slide
D|----------------|-----------------|----------------|-3\-|
A|----------------|-----------------|----------------|-4\-|
F| chord diagramF|F|----5-5-----5-5-|-----------------|----5-5-----5-5-|-5\-|
C| chord diagramC|C|-0--3-3--0--3-3-|-6p3p0-----------|-0--3-3--0--3-3-|-3\-|
G|-0--3-3--0--3-3-|------6p3p0------|-0--3-3--0--3-3-|----|
C| chord diagramC|C|-0--x-x--0--x-x-|-----------6p3p0-|-0--x-x--0--x-x-|----|
|All Down Strums |                 | All Down Strums|Down Strum, Slide then Up Strum
D|----------------|-----------------|----------------|-3\10-|
A|----------------|-----------------|----------------|-4\8--|
F| chord diagramF|F|----5-5-----5-5-|-----------------|----5-5-----5-5-|-5\9--|
C| chord diagramC|C|-0--3-3--0--3-3-|-6p3p0-----------|-0--3-3--0--3-3-|-3\7--|
G|-0--3-3--0--3-3-|------6p3p0------|-0--3-3--0--3-3-|------|
C| chord diagramC|C|-0--x-x--0--x-x-|-----------6p3p0-|-0--x-x--0--x-x-|------|


|All Down Strums |                               | All Down Strums|Down Strum then Slide
D|----------------|-------------------------------|----------------|-3\-|
A|----------------|-------------------------------|----------------|-4\-|
F| chord diagramF|F|----5-5-----5-5-|-------------------------------|----5-5-----5-5-|-5\-|
C| chord diagramC|C|-0--3-3--0--3-3-|-6p3p0-------------------0h3h6-|-0--3-3--0--3-3-|-3\-|
G|-0--3-3--0--3-3-|------6p3p0---------0h3h6------|-0--3-3--0--3-3-|----|
C| chord diagramC|C|-0--x-x--0--x-x-|-----------6p3p0h3h6-----------|-0--x-x--0--x-x-|----|


| All Down Strums|                 | All Down Strums|Down Strum then Slide
D|----------------|-----------------|----------------|-3\-|
A|----------------|-----------------|----------------|-4\-|
F| chord diagramF|F|----5-5-----5-5-|-----------------|----5-5-----5-5-|-5\-|
C| chord diagramC|C|-0--3-3--0--3-3-|-6p3p0-----------|-0--3-3--0--3-3-|-3\-|
G|-0--3-3--0--3-3-|------6p3p0------|-0--3-3--0--3-3-|----|

Almost there ...

Sign in to get your own page with links to favourite songs and more. You are just one click away...

Login with Facebook Login with Google