Log in

One click and you are in

Login with Facebook Login with Google

Why sign up and log in

Guitar Tabs Explorer
Marmottes Applaties tabs for Vengeance

Guitar tabs

Titre:         Vengeance
Groupe:        Les marmottes applaties
Album:         camion (demo)
Ecrit Par:     b.lamoureux
Transcrit Par: b.lamoureux
----------------------------------------------------------------------
j'ecris les notes, vous pognerez le rhytm tout seul, c'es facile!

----------------------------------------------------------------------


clean
|----------------------------------------|-------------------------------
|----------------------------------------|-------------------------------
|-----------------5------------------5-4-|-------------------------------
|---2-2------5---5-5---2-2------5---5----|-------------------------------
|--2-2--2---5-5-3-----2-2--2---5-5-3-----|-------------------------------
|-0------0-3---------0------0-3----------|-------------------------------



distortion   p.m.
|-0----------|---------|---------|---------------------------------------
|-0----------|---------|---------|---------------------------------------
|-x------5-4-|---------|-----5-4-|---------------------------------------
|-2---5--5-5-|---------|-2-5-5-4-|---------------------------------------
|-2---5--3-3-|-2-3-5-4-|-2-5-3-2-|---------------------------------------
|-0---3------|-0-0-3-2-|-0-3-----|---------------------------------------


guitar 1

|-0--3--0--2-|-----------------------------------------------------------
|-0--3--1--3-|-----------------------------------------------------------
|-x--0--0--2-|-----------------------------------------------------------
|-2--0--2--0-|-----------------------------------------------------------
|-2--x--3--0-|-----------------------------------------------------------
|-0--3-------|-----------------------------------------------------------


guitar 2

|------------|-----------------------------------------------------------
|------------|-----------------------------------------------------------
|-------5--7-|-----------------------------------------------------------
|-2--5--5--7-|-----------------------------------------------------------
|-2--5--3--5-|-----------------------------------------------------------
|-0--3-------|-----------------------------------------------------------


Ce fichier a ‚t‚ cr‚e par Tab 1.1

Almost there ...

Sign in to get your own page with links to favourite songs and more. You are just one click away...

Login with Facebook Login with Google